Afi

Afi - Brownie Bottom Sundae bass tab

Song: Brownie Bottom Sundae

Artist: A.F.I.

Album: Answer That and Stay Fashionable

Tab by: HadeXaZaraM

Tuning: Standard

Verse

G|-------------------------------------------------------------|

D|-------------------------------------------------------------|

A|-4-4-4-4---------4-4-4-4-7---4-4-4-4---------7-7-7-7---------|

E|---------5-5-5-5-----------7---------5-5-5-5---------7-7-7-7-|

Chorus

G|-------------------------------------------------------------|

D|-------------------------------------------------------------|

A|---------7-7-7-7-4-4-4-4-----------------7-7-7-7-4-4-4-4-----|

E|-5-5-5-5-----------------4-4-5-5-5-5-5-5-----------------7-5-|

G|-------------------------------------------------|

D|-------------------------------------------------|

A|---------7-7-7-7-4-4-4-4-------------------------|

E|-5-5-5-5-----------------4-4-5-5-5-5-5-5-7-7-7-7-|

Bridge

G|-----------------------------------------------------------------|

D|---------------------------------------------------------7-7-7-7-|

A|-4-4-4-4-7-7-7-7-----------------4-4-4-4-7-7-7-7-9-9-9-9---------|

E|-----------------5-5-5-5-7-7-7-7---------------------------------|

Outro

G|---------------------|

D|---------------------|

A|---------7-7-7-7-4-4-|

E|-5-5-5-5-------------|

--------------------------------

Song Structure

--------------------------------

Verse --------------- 6x

Chorus --------------- 1x

Verse --------------- 2x

Bridge --------------- 2x

Verse --------------- 2x

Outro --------------- 1x

--------------------------------

Get this song at:  amazon.com sheetmusicplus.com

Share your thoughts

0 Comments found