Afi

Afi - Soap Box Derby guitar tab

-------------------------------------------------------------------------------

SOAP BOX DERBY - AFI

-------------------------------------------------------------------------------

Intro/verse:

e-|-------------------------------------------------------------------|

B-|-------------------------------------------------------------------|

G-|-------------------------------------------------------------------|

D-|---------------------------5-5-5-----------5-5-5-----------5-5-5---|

A-|-7-7-7-7-7-7-7-7-7-7-7-7-7-3-3-3-3-3-3-3-3-3-3-3-5-5-5-5-5-3-3-3-7-|

E-|-5-5-5-5-5-5-5-5-5-5-5-5-5-------1-1-1-1-1-------3-3-3-3-3-------5-|

Second riff of verse:

e-|---------------------------------------------------------------------------|

B-|---------------------------------------------------------------------------|

G-|---------------------------------------------------------------------------|

D-|---------------------------5-5-5-10-10-10-10-10-10-10-12-12-12-12-12-12-12-|

A-|-7-7-7-7-7-7-7-7-7-7-7-7-7-3-3-3--8--8--8--8--8--8--8-10-10-10-10-10-10-10-|

E-|-5-5-5-5-5-5-5-5-5-5-5-5-5-------------------------------------------------|

after you play that riff twice you end it on high E (7th fret on the A string)

Riff when all other instruments cut out

e-|-----------------------------------------------------------------|

B-|-----------------------------------------------------------------|

G-|-----------------------------------------------------------------|

D-|---------5-5-5-5-9-9-9-9-----------------5-5-5-5-----------------|

A-|-7-7-7-7-3-3-3-3-7-7-7-7-9-9-9-9-7-7-7-7-3-3-3-3-5-5-5-5-5-5-5-5-|

E-|-5-5-5-5-----------------7-7-7-7-5-5-5-5---------3-3-3-3-3-3-3-3-|

Chorus:

e-|---------------------------------|

B-|---------------------------------|

G-|---------------------------------|

D-|---------9-9-9-9-----------------|

A-|-7-7-7-7-7-7-7-7-5-5-5-5-5-5-5-5-|

E-|-5-5-5-5---------3-3-3-3-3-3-3-3-|

Bridge right after chorus:

e-|----------------------------------------------------------------|

B-|----------------------------------------------------------------|

G-|----------------------------------------------------------------|

D-|---------9-9-9-9--------------------------9-7-5-----------------|

A-|-7-7-7-7-7-7-7-7-5-5-5-5-7-7-7-7--7-7-7-7-7-5-3-5-5-5-5-7-7-7-7-|

E-|-5-5-5-5---------3-3-3-3-5-5-5-5--5-5-5-5-------3-3-3-3-5-5-5-5-|

-------------------------------------------------------------------------------

Get this song at:  amazon.com sheetmusicplus.com

Share your thoughts

0 Comments found