Afi

Afi - Three And A Half guitar chord

Date: Tue, 17 Sep 2002 12:45:22 -0500

From: Disappearing Boy

Subject: a/afi/three_and_a_half.crd

ARTIST: AFI

SONG: 3 1/2 (Three and a Half)

ALBUM: A Fire Inside EP

TABBED BY: Disappearing Boy (chris@myhidingspot.com)

---------------------------------------------------------------------------

I wanted to learn this song, but since it seems no one has posted a tab for

this ANYWHERE on the internet, I took the time to learn it and tab it

myself. Very cool song...enjoy.

INTRO

e|----------------------------------------------------------|

B|----------------------------------------------------------|

G|----------------------------------------------------------|

D|--2--------------x-x------2--------------x----------------|

A|--2--let ring----x-x------2--let ring----x----------------|

D|--0--------------x-x------0--------------x----------------|

e|-------------------------------|--------------------------|

B|-------------------------------|--------------------------|

G|-------------------------------|----------------9-9-9-----|

D|-2-------------2---x-x-x-x-----|-2--------------9-9-9-----|

A|-2--let ring---2---x-x-x-x-----|-2--let ring----7-7-7-----|

D|-0-------------0---x-x-x-x-----|-0------------------------|

"Why am I this way?..." (screams) "Whyyy?!?"

e|----------------------|

B|----------------------|

G|-4-4-4-4--2-2--5-5----|

D|-4-4-4-4--2-2--5-5----|

A|-2-2-2-2--0-0--3-3----|

D|----------------------|

VERSE

e|------------------------------|---------------------------|

B|------------------------------|---------------------------|

G|-2-2-2--4-4-4--5-5-5-5-4------|-2-2-2--4-4-4--3-3-6-6-----|

D|-2-2-2--4-4-4--5-5-5-5-4--5-5-|-2-2-2--4-4-4--x-x-x-x-----|

A|-0-0-0--2-2-2--3-3-3-3-2--5-5-|-0-0-0--2-2-2--1-1-4-4-----|

D|--------------------------3-3-|---------------------------|

"Open wounds in the palm of my hand...."

"Shards of glass swimming in my eyes..."

VERSE pt 2

e|----------------------|

B|----------------------|

G|-2-2-2---------3-3----|

D|-2-2-2--2-2-2--3-3----|

A|-0-0-0--2-2-2--1-1----|

D|--------0-0-0---------|

"Prevent myself from spilling..."

"To reach into my wounds..."

CHORUS

e|-------------------|--------------------------------------|

B|-------------------|--------------------------------------|

G|-4-4-4-4--2-2--5-5-|--------------------------------------|

D|-4-4-4-4--2-2--5-5-|--2-x-x-x-x---------------------------|

A|-2-2-2-2--0-0--3-3-|--2-x-x-x-x---pick slide--------------|

D|-------------------|--0-x-x-x-x---------------------------|

"I'm so sick..."

END

e|----------|

B|-----4----|

G|-----4----|

D|-2---4----|

A|-2---2----|

D|-0--------|

INTRO

VERSE

VERSE pt 2

CHORUS

VERSE

VERSE pt 2

CHORUS

INTRO

CHORUS

END

There are some slight variations in the 2nd intro and chorus after it.

Listen to the song to get the timing and strum pattern. The ending chord

could be wrong, but whatta ya gonna do?

Get this song at:  amazon.com sheetmusicplus.com

Share your thoughts

0 Comments found