Afi

Afi - Affliction guitar tab

-----------------------------------------------------------------------

Affliction – A.F.I.

-----------------------------------------------------------------------

Tabbed by: llama_slap

Email: webmaster at tabs-database.com.com

Tuning: Eb Ab Db Gb Bb eb ½ step down

D# G# C# F# A# D#

Before I say anything, if you are going to rate

this tab, please don’t rate it bad because of the missing parts.

Please rate it according to how these parts sound. Thank you.

Please email me and leave comments, and if you figure out the missing parts and want to

me them, you will receive credit for them in the tab.

Enjoy! And please see the key at the bottom for symbols.

INTRO/VERSES

eb|--------------------------------------------------|

Bb|--------------------------------------------------|

Gb|-9-9-9999-99-9999-10-10-10101010-1010-1010--------|

Db|-7-7-7777-77-7777--7--7--7-7-7-7--7-7--7-7--------|

Ab|-0-0-0000-00-0000--0--0--0-0-0-0--0-0--0-0--------|

Eb|--------------------------------------------------|

X2

eb|-------------------x~-----------------------------|

Bb|-------------------0~-----------------------------|

Gb|-7-7-7777-77-77--—-x~-----------------------------|

Db|-7-7-7777-77-77--—11~-----------------------------|

Ab|-0-0-0000-00-00--—-x~-----------------------------|

Eb|-------------------9~-----------------------------|

eb|--------------------------------------------------|

Bb|--------------------------------------------------|

Gb|-9-9-9999-99-9999-10-10-10101010-1010-1010--------|

Db|-7-7-7777-77-7777--7--7--7-7-7-7--7-7--7-7--------|

Ab|-0-0-0000-00-0000--0--0--0-0-0-0--0-0--0-0--------|

Eb|--------------------------------------------------|

eb|--------------------------------------------------|

Bb|-8-8-8888-88-88-----------------------------------|

Gb|-x-x-xxxx-xx-xx----/14-\\-/14-\\-/14-\\-/14-\\--------|

Db|-7-7-7777-77-77------x-----x-----x-----x----------|

Ab|-0-0-0000-00-00----/12-\\-/12-\\-/12-\\-/12-\\--------|

Eb|--------------------------------------------------|

OR this sounds right too, play around with them both.

eb|-------------------------------------------------------|

Bb|-------------------------------------------------------|

Gb|-------------------------------------------------------|

Db|-14-14-14141414-1414-14141414--15-15-15151515-1515-1515|

Ab|--0--0--0-0-0-0--0-0--0-0-0-0---0--0--0-0-0-0--0-0--0-0|

Eb|-------------------------------------------------------|

X2

eb|-----------------------------x~------------------------|

Bb|-----------------------------0~------------------------|

Gb|-----------------------------x~------------------------|

Db|-12-12-12121212-1212-1212---11~------------------------|

Ab|--0--0--0-0-0-0--0-0--0-0—---x~------------------------|

Eb|-----------------------------9~------------------------|

eb|-------------------------------------------------------|

Bb|-------------------------------------------------------|

Gb|-------------------------------------------------------|

Db|-14-14-14141414-1414-14141414--15-15-15151515-1515-1515|

Ab|--0--0--0-0-0-0--0-0--0-0-0-0---0--0--0-0-0-0--0-0--0-0|

Eb|-------------------------------------------------------|

eb|-------------------------------------------------------|

Bb|-------------------------------------------------------|

Gb|----------------------------/14-\\-/14-\\-/14-\\-/14-\\----|

Db|-17-17-17171717-1717-1717-----x-----x-----x-----x------|

Ab|--0--0--0-0-0-0--0-0--0-0---/12-\\-/12-\\-/12-\\-/12-\\----|

Eb|-------------------------------------------------------|

PRE-CHORUS

eb|-------------------------------------------------------|

Bb|-------------------------------------------------------|

Gb|-------------------------------------------------------|

Db|-------------------------------------------------------|

Ab|-0-14-0-14-15-15-0-0-14-0-14h15-15~-0-14-0-14-15-15----|

Eb|-------------------------------------------------------|

Alt. Endings

eb|----------------------|--------------------------------|

Bb|-17-17-17-16--16-16-16|--------------------------------|

Gb|-14-14-14-14--14-14-14|--------------------------------|

Db|----------------------|-77777777-----------------------|

Ab|----------------------|-77777777-----------------------|

Eb|----------------------|-55555555-----------------------|

........

CHORUS

Let everything ring

eb|---0----0-----0----------------------------------------|

Bb|------------------0----0-----0-----0-------0-------6---|

Gb|----5-----5---------0----0-------5---5---0---0---5---5-|

Db|-7----7-----7---5-----5----5---3-------3-------7-------|

Ab|-------------------------------------------------------|

Eb|-------------------------------------------------------|

eb|-----------0-----0-----0-------------------------------|

Bb|-----8---------------------0---------0-----------------|

Gb|---7---7-----5-----5---------0---5---------------------|

Db|-9-------7-----7-----7---5-----3---3-------------------|

Ab|-------------------------------------------------------|

Eb|-------------------------------------------------------|

POST-CHORUS 1

eb|----------------------------------------------|

Bb|----------------------------------------------|

Gb|-------------------13-13-13-13-13-13-13-13----|

Db|--------------------x--x--x--x--x--x--x--x----|

Ab|-------------------11-11-11-11-11-11-11-11----|

Eb|-1-1-1111-11-1110---0--0--0--0--0--0--0--0----|

(o n e s)(one zero-not ten)

VERSE 2 is the same as verse 1 except:

On the second time through the verse, the end changes to:

eb|--x--------------------------------------------------|

Bb|--0---(0)—-(0)---------------------------------------|

Gb|--x--------------------------------------------------|

Db|-11---12---14----------------------------------------|

Ab|--x----x----x----------------------------------------|

Eb|--9---10---12----------------------------------------|

And the octave slides before the pre-chorus change to:

eb|---------------------------------------------------|

Bb|---------------------------------------------------|

Gb|-/14-\\-/16-\\-/17-\\-/19-\\---------------------------|

Db|---x-----x-----x-----x-----------------------------|

Ab|-/12-\\-/14-\\-/15-\\-/17-\\---------------------------|

Eb|---------------------------------------------------|

Pre-Chorus is the same except for alt. ending #2:

eb|---------------------------------------------------|

Bb|---------------------------------------------------|

Gb|---------------------------------------------------|

Db|-7777-7--5-----------------------------------------|

Ab|-7777-7--5-----------------------------------------|

Eb|-5555-5--3-----------------------------------------|

....

Chorus is the same

POST-CHORUS 2

eb|----------------------------------------------|

Bb|----------------------------------------------|

Gb|-------------------13-13-13-13-13-13-13-13----|

Db|--------------------x--x--x--x--x--x--x--x----|

Ab|-------------------11-11-11-11-11-11-11-11----|

Eb|-1-1-1111-11-1110---0--0--0--0--0--0--0--0----|

(o n e s)(one zero-not ten)

eb|----------------------------------------------|

Bb|----------------------------------------------|

Gb|-13-13-13-13-13-13-13-13-19-19-19-19-19-19----|

Db|--x--x--x--x--x--x--x--x--x--x--x--x--x—-x----|

Ab|-11-11-11-11-11-11-11-11-17-17-17-17-17-17----|

Eb|--0--0--0--0--0--0--0--0--0--0--0--0--0—-0----|

eb|----------------------------------------------|

Bb|----------------------------------------------|

Gb|-----21-21-21-21-21-21------------------------|

Db|------x--x--x--x--x--x------------------------|

Ab|-----19-19-19-19-19-19------------------------|

Eb|-0-0--0--0--0--0--0--0------------------------|

BRIDGE-ROOT

eb|----------------------|

Bb|----------------------|

Gb|----------------------|

Db|----------------------|

Ab|----------------------|play this before all of the

Eb|-5--5-7-8-7-5-7-5-1---| alternate endings below!

BRIDGE-ALTERNATE ENDINGS

eb|----------------|----------------|---------------------|

Bb|----------------|----------------|---------------------|

Gb|----------------|----------------|---------------------|

Db|----------------|----------------|---------------------|

Ab|----------------|----------------|---------------------|

Eb|1-1-1-0-0--0-0-0|1-1-1-0-00000000|1-1-1h3p1p0-0-0-0-0--|

eb|-----------------------|----------------|----------------|

Bb|-----------------------|----------------|----------------|

Gb|--------13-13-13-13----|----------------|----------------|

Db|---------x--x--x--x---5|----------------|----------------|

Ab|--------11-11-11-11---5|--------22222222|----------------|

Eb|1-1-1-0--0--0--0--0-0-3|1-1-1-0-00000000|1-1-1-0-00000000|

.

Last time

eb|----------------------|

Bb|----------------------|

Gb|----------------------|

Db|----------------------|

Ab|----------------------|

Eb|-5~--let-ring---------|

CLEAN PART- I almost have it, but I wanted to get this posted

so far for you guys.

eb|-0~--------------------------------------------------|

Bb|-0~--------------------------------------------------|

Gb|-0~--------------------------------------------------|

Db|-2~--------------------------------------------------|

Ab|-2~---------------0-14-0-14-15-15-0-0-14-0-14h15-15--|

Eb|-0~---15////////-------------------------------------|

eb|-------------------------------------------|

Bb|-------------------------------------------|

Gb|-------------------------------------------|

Db|-------------------------------------------|

Ab|-0-14-0-0-15-0-0-17-0-0-19-0-0-22//--------|

Eb|-------------------------------------------|

LAST CHORUS- I know it’s different, sorry again guys.

LAST POST-CHORUS

eb|----------------------------------------------|

Bb|----------------------------------------------|

Gb|-------------------13-13-13-13-13-13-13-13----|

Db|--------------------x--x--x--x--x--x--x--x----|

Ab|-------------------11-11-11-11-11-11-11-11----|

Eb|-1-1-1111-11-1110---0--0--0--0--0--0--0--0----|

(o n e s)(one zero-not ten)

eb|----------------------------------------------|

Bb|----------------------------------------------|

Gb|-13-13-13-13-13-13-13-13-19-19-19-19-19-19----|

Db|--x--x--x--x--x--x--x--x--x--x--x--x--x—-x----|

Ab|-11-11-11-11-11-11-11-11-17-17-17-17-17-17----|

Eb|--0--0--0--0--0--0--0--0--0--0--0--0--0—-0----|

eb|----------|

Bb|----------|

Gb|-----21---|

Db|------x---|

Ab|-----19---|

Eb|--0-0—0---|

LAST RIFF

eb|----------------------------------------------------|

Bb|----------------------------------------------------|

Gb|----------------------------------------------------|

Db|----------------------------------------------------|

Ab|-0-14-0-14-15-15-0-0-14-0-14h15-15--0-14-0-14-15-15-|

Eb|----------------------------------------------------|

Alt. Endings

eb|----------------------|-----------------------------|

Bb|-17-17-17-16--16-16-16|-17-17-17-17-16-16-----------|

Gb|-14-14-14-14--14-14-14|-14-14-14-14-14-14-----------|

Db|----------------------|-------------------x-7///----|

Ab|----------------------|-------------------x-7///----|

Eb|----------------------|-------------------x-5///----|

OUTRO

Sorry I don’t have the acoustic guitar but I have the basic lead.

eb|-12----12----13----13----12----12-13-10----10-------|

Bb|----13----13----13----13----13----------13----13----|

Gb|----------------------------------------------------|x a lot

Db|----------------------------------------------------|w/a couple

Ab|----------------------------------------------------|variations

Eb|----------------------------------------------------|

| . palm mute

| / slide up

| \\ slide down

| h hammer-on

| p pull-off

| ~ let ring

| + harmonic

| x Mute note

=======================================================================Added by tabs-database.com and our distinguished partners

Get this song at:  amazon.com sheetmusicplus.com

Share your thoughts

0 Comments found