Afi

Afi - Love Like Winter guitar tab

This is my first tab and I hope it is right. I figured it out by ear and this is what I heard.

VERSE 1:

e]----------------------------------------------------------------]

B]----------------------------------------------------------------]

G]-6-6-6-6---------6-6-6-6---------6-6-6-6---------6-6-6-6--------]

D]----------------------------------------------------------------]

A]----------------------------------------------------------------]

E]----------------------------------------------------------------]

e]----------------------------------------------------------------]

B]----------------------------------------------------------------]

G]----------------------------------------------------------------]

D]----------------------------------------------------------------]

A]-4-4-4-4-4-4-4-4-8-8-8-8-8-8-8-8-4-4-4-4-4-4-4-4-6-6-6-6-6-6-6-6]

E]2-2-2-2-2-2-2-2-6-6-6-6-6-6-6-6-2-2-2-2-2-2-2-2-4-4-4-4-4-4-4-4-]

CHORUS:

e]----------------------------------------------------------------]

B]----------------------------------------------------------------]

G]----------------------------------------------------------------]

D]8888444466666666888844446666666688884444666666668888444466666666]

A]8888444466666666888844446666666688884444666666668888444466666666]

E]6666222244444444666622224444444466662222444444446666222244444444]

RIFF 1:

e]-6-16-14-13---13-14-13-6-16-14-13---13-14-13-----------------]

B]-------------------------------------------------------------]

G]-------------------------------------------------------------]

D]-------------------------------------------------------------]

A]-------------------------------------------------8-9-----8-9-]

E]---------------------------------------------6666----6666----]

VERSE 2:

e]----------------------------------------------------------------]

B]----------------------------------------------------------------]

G]----------------------------------------------------------------]

D]----------------------------------------------------------------]

A]-4-4-4-4-4-4-4-4-8-8-8-8-8-8-8-8-4-4-4-4-4-4-4-4-6-6-6-6-6-6-6-6]

E]2-2-2-2-2-2-2-2-6-6-6-6-6-6-6-6-2-2-2-2-2-2-2-2-4-4-4-4-4-4-4-4-]

e]----------------------------------------------------------------]

B]----------------------------------------------------------------]

G]----------------------------------------------------------------]

D]4~~~~~~~~~~~~~~~------------------------------------------------]

A]4~~~~~~~~~~~~~~~-8-8-8-8-8-8-8-8-4-4-4-4-4-4-4-4---------6-6-6-6]

E]2~~~~~~~~~~~~~~~6-6-6-6-6-6-6-6-2-2-2-2-2-2-2-2---------4-4-4-4-]

CHORUS:

e]----------------------------------------------------------------]

B]----------------------------------------------------------------]

G]----------------------------------------------------------------]

D]8888444466666666888844446666666688884444666666668888444466666666]

A]8888444466666666888844446666666688884444666666668888444466666666]

E]6666222244444444666622224444444466662222444444446666222244444444]

RIFF 2:

e]-6-16-14-13---13-14-13-6-16-14-13---13-14-13]

B]--------------------------------------------]

G]--------------------------------------------]

D]--------------------------------------------]

A]--------------------------------------------]

E]--------------------------------------------]

BRIDGE:

e]------------------------------------------------]

B]------------------------------------------------]

G]------------------------------------------------]

D]8~~~~~~~~~~~~~~~--------------------------------]

A]8~~~~~~~~~~~~~~~----8-9-----8-9-----8-9-----8-9-]

E]6~~~~~~~~~~~~~~~6666----6666----6666----6666----]

e]------------------------------------------------]

B]------------------------------------------------]

G]------------------------------------------------]

D]--------------------------------8888888888888888]

A]----8-9-----8-9-----8-9-----8-9-8888888888888888]

E]6666----6666----6666----6666----6666666666666666]

e]----------------]

B]----------------]

G]----------------]

D]88888888--------]

A]88888888--------]

E]66666666--------]

CHORUS:

e]----------------------------------------------------------------]

B]----------------------------------------------------------------]

G]----------------------------------------------------------------]

D]8888444466666666888844446666666688884444666666668888444466666666]

A]8888444466666666888844446666666688884444666666668888444466666666]

E]6666222244444444666622224444444466662222444444446666222244444444]

RIFF 3:

e]-6-16-14-13---13-14-13-6-16-14-13---13-14-13]

B]--------------------------------------------]

G]--------------------------------------------]

D]--------------------------------------------]

A]--------------------------------------------]

E]--------------------------------------------]

That's it. I hope you enjoy this tab. If you have any comments or questions just

me at webmaster at tabs-database.com.com.Added by tabs-database.com and our distinguished partners

Get this song at:  amazon.com sheetmusicplus.com

Share your thoughts

0 Comments found