Afi

Afi - Hearts Frozen Soil Thawed guitar tab

-------------------------------------------------------------------------------

HEARTS FROZEN SOIL THAWED [...] - AFI

-------------------------------------------------------------------------------

(the actual title was supposed to have the word "thawed" not "sod"

but the Fat Wreck people wrote it wrong)

Tabbed by Jade

Intro (Chorus):

|---3---5---7---3---3---5---3---x----8-----7---|

|---3---7---8---5---3---7---3---x---10----8----|

|---4---7---9---5---4---7---2---x---10----9----|

|---5---7---9---5---5---7---3---2---10----9----|

|---5---5---7---3---5---5---3---2----8----7----|

|---3---5---7---3---3---5---1---x----8----7----|

Verse:

|--------------------------------------------5---|

|--------------------------------------------7---|

|---x---5---4---x---5---4---x---5---4---7--------|

|---2---5---5---2---5---5---2---5---5---7--------|

|---2---3---5---2---3---5---2---3---5---5--------|

|---x---3---3---x---3---3---x---3---3---5--------|

And the final chorus ends on the G major barre:

|----3----|

|----3----|

|----4----|

|----5----|

|----5----|

|----3----|

-------------------------------------------------------------------------------

Get this song at:  amazon.com sheetmusicplus.com

Share your thoughts

0 Comments found