Afi

Afi - At A Glance guitar tab

Author/Artist: AFI

Title: At A Glance

Album: Black Sails

Transcribed by: Jim Borden

Email: ekryte@imtoosexy.com

xxxxx = pick scrape

p.m. = palm muted

Here we go through this song!!

Intro

Verse

Chorus (Ending One)

Verse

Chorus (Ending Two)

Bridge

Chorus (Ending One)

Chorus (Ending One)

Outro

Solo

Ending - Bass and Drums only

Drop D Tuning!!! I know...it sucks.....but I can't figure out any other way to reach the low chords

------------------------------------------------------------------------------

------------------------------------------------------------------------------

------------------------------------------------------------------------------

------------------------------------------------------------------------------

--7xx-8xx-7xx-8xx-7-8-10-1010101010-1010101010-7xx-8xx-7xx-8xx-7-8-555-888-55-

--7xx-8xx-7xx-8xx-7-8-10-1010101010-1010101010-7xx-8xx-7xx-8xx-7-8-555-888-55-

Intro

-------------------------------------------|--------------------------------------------

-------------------------------------------|--------------------------------------------

---------------------7---------------------|-5555-6666-77777---------------------

---------------------7---7-777777-33333333-|-5555-6666-77777-7-7----------------

-5-888---------------5---7-777777-33333333-|-3333-4444-55555-7-7----------------

-5-888------xxxxx--------7-777777-33333333-|-----------------7-7----------------

Verse part 1(x3) Verse part 2(x1)

--------------------------------------------------------------------------------------------------------|-----

--------------------------------------------------------------------------------------------------------|-----

--------------------------------------------------------------------------------------------------------|-----

-55555555-11111111-88888888-1010101010101010-55555555-11111111-33333333-|-8-8-

-55555555-11111111-88888888-1010101010101010-55555555-11111111-33333333-|-8-8-

-55555555-11111111-88888888-1010101010101010-55555555-11111111-33333333-|-8-8-

Chorus

-----------|---------------------------------------------------------------------

-----------|---------------------------------------------------------------------

-----------|---------------------------------------------------------------------

-333--5--|-1---7-7777777--77---------------------------------------------------

-333--5--|-1---7-7777777--77---------------------------------------------------

-333--5--|-1---7-7777777--77---------------------------------------------------

Ending 1 (up to bar) Ending 2 (whole thing)

---------------------------------------------------------------------------------|--------------

---------------------------------------------------------------------------------|--------------

---------------------------------------------------------------------------------|--------------

-0-0-7-7-8-8-7-7----------------------0-0-7-7-8-8-7-7----------------10----------|--------------

----------------------6-6-6-8-8-6-6-6---------------------6-6-6-8-8-8------------|-10---7------

---------------------------------------------------------------------------------|-10---7------

---------------------------------------------------------------------------------|-10---7------

Bridge (p.m.) x4 after bar X1, then repeat

x2 on repeat x3 on repeat

------------------------------------------------------------------------------

------------------------------------------------------------------------------

------------------------------------------------------------------------------

------------------------------------------------------------------------------

------------------------------------------------------------------------------

-xxxxxxx----------------------------------------------------------------------

LONG

------------------------------------------------------------------------------

------------------------------------------------------------------------------

------------------------------------------------------------------------------

-55555555-88888888-33333333-1212121212121212--(0)-----------------------------

-55555555-88888888-33333333-1212121212121212--(0)-----------------------------

-55555555-88888888-33333333-1212121212121212--(0)-----------------------------

Outro (try to make as little strumming noise as possible while you strum)

Use chord in parenthesis instead of 12 once the whoa-oh starts

------------------------------------------------------------------------------

------------------------------------------------------------------------------

-12-15-14-17-19-20-17-15-14-12-15-14-12-15-14-12-10-14-7----------------------

----------------------------------------------------------5-------------------

-10-13-12-15-17-18-15-13-12-10-13-12-10-13-12-10-8--12-5--5-------------------

----------------------------------------------------------5-------------------

Solo (listen for rhythm)

Get this song at:  amazon.com sheetmusicplus.com

Share your thoughts

0 Comments found