Afi

Afi - Love Like Winter Bass guitar tab

INTRO AND VERSE NO BASS

CHORUS

||-------|---------|-------|-----||-------|---------|---------|7-----||

||-------|---------|-------|-----||-------|---------|---7-7---|----7-||

||2--2---|---------|-------|5----||2--2---|---------|-------5-|------||

||------3|3-3-3333-|5--5555|---5-||------3|3-3-3333-|5--------|--5---||

||-------|---------|-------|-----||-------|---------|------------------||

||-------|---------|-------|-----||-------|---------|------------------||

||2--2---|---------|-------|5----||2--2---|---------|------------------||

||------3|3-3-3333-|5--5555|---5-||------3|3-3-3333-|55-555-5|55-55555-||

OUTRO

||----|-----|----|-----||------|------|------|--------------||

||----|-----|----|-----||------|------|------|--------------||

||2---|-----|----|5----||2--225|------|------|5-/12-12-12-12||

||---3|33--3|5--5|---5-||------|3-3333|5-5555|--------------||

VERSE NO BASS

SAME CHORUS

BRIDGE

||------------|| ||------------------------------||

||------------|| ||------------------------------||

||2--2--2--2--|| ||2-2-2-2-2-2-2-2-2-2-2-2-2-2-2-||

||------------|| ||------------------------------||

repeat few times then faster

CHORUS

OUTRO

Added by tabs-database.com and our distinguished partners

Get this song at:  amazon.com sheetmusicplus.com

Share your thoughts

0 Comments found