Afi

Afi - Keepin Out Of Direct Sunlight guitar tab

-------------------------------------------------------------------------------

KEEPING OUT OF DIRECT SUNLIGHT - AFI

-------------------------------------------------------------------------------

Intro: singing starts here: speeds up here:

e-|------------|----------------------------------------|-----------------

B-|------------|----------------------------------------|-----------------

G-|------------|----------------------------------------|-----------------

D-|---8--------|-----8---12-12-12-12----8---------------|-------------9-9-

A-|-7-6-7--5-7-|-7---6-7-10-10-10-10-7--6-7-10-7-5-7-5--|-7-7-7-7-7-7-7-7-

E-|-5---5--3-5-|-5-----5-------------5----5--8-5-3-5-3--|-5-5-5-5-5-5-----

e-|-------------------------------------------------------------------------

B-|-------------------------------------------------------------------------

G-|-------------------------------------------------------------------------

D-|-10-10-10-10-10-10-10-10-----------------10-10-10-10---------------------

A-|--8--8--8--8--8--8--8--8-7-7-7-7-7-7-7-7--8--8--8--8-5-5-5-5-7-7-7-7-7-7-

E-|-------------------------5-5-5-5-5-5-5-5-------------3-3-3-3-5-5-5-5-5-5-

e-|-------------------------------------------------------------------------|

B-|-------------------------------------------------------------------------|

G-|-------------------------------------------------------------------------|

D-|-9-9-10-10-10-10-10-10-10-10-------------------------10-10-10-10-9-9-9-9-|

A-|-7-7--8--8--8--8--8--8--8--8-10-10-10-10-10-10-10-10--8--8--8--8-7-7-7-7-|

E-|------------------------------8--8--8--8--8--8--8--8---------------------|

Last part:x2

e-|------------------------------------------|

B-|------------------------------------------|

G-|------------------------------------------|

D-|---8-----------8------5-5-5-5-------5-5-5-|

A-|-7-6-7-----5-7-6-7----3-3-3-3-5-5-5-3-3-3-|

E-|-5---5-x-x-3-5---5-x-x--------3-3-3-------|

-------------------------------------------------------------------------------

Get this song at:  amazon.com sheetmusicplus.com

Share your thoughts

0 Comments found