Afi

Afi - Leaving Song Part 2 bass tab

Starts off on the verse

/repeats twice\ /played once\

G|-----------------------|--------------------------------------|

D|-----------------------|-------7h9----------------------------|

A|-10-10-99-7-7-10-9-7-9-|-10-10-----7-7-10-9-7-9-5-5-5---------|

E|-----------------------|------------------------------33-5555-|

Prechorus

G|-------|--------------------------------|

D|-------|--------------------------------|

A|-------|-----777-10-10-10-5/17-17-17-17-|hold that 5 a bit before

E|-0-0-0-|-0-0----------------------------|sliding up

Chorus

G|---------------------------------------------------|

D|---------------------------------------------------|

A|-----7777-----------------7777-10-9-10/12\10/12\10-|

E|-000------3-2-5-2/3\2-000--------------------------|

Post Chorus

G|-----2---2-------------------------|

D|---2---2---2---2-------------------|

A|-0-----------0---0-2222----5/77777-|

E|------------------------0~---------|

-verse

Chorus

G|----------------------------------------------|

D|------------------------------------9-7\5/7\5-|

A|-----7777-----------------7777-10-9-----------|

E|-000------3-2-5-2/3\2-000---------------------|

Bridge (I left it all behind...)

G|-----------------------------------------------------------|

D|-----------------------------------------------------------|

A|-----------------------------------------------------------|

E|-0000-000-000000-0000-000-000000-0000-000-000000---0000000-|

G|--------------------------------------|

D|--------------------------------------|

A|--------------------------------10----|

E|-7-0000-8-0000000-5-00-7h8-7777----10-|

G|-------------------------------------|

D|-------------------------------------|

A|-----------------5----------------7~-|

E|7-0000-8-0000000----0000-77-5-7-5----|

(I saw it's birth...)

G|---------------------------------|

D|---------------------------------|

A|-7-7-7~---5---7~-------10~-9-12~-|

E|--------7---7----5-7-7-----------|

G|-----------------------------------------------------|

D|-----------------------------------4-------------4---|

A|---------2-------------2-----------------------------|

E|-0-0-0-0---0-0-0-0-0-0---0-2-2-2-2---2-2-2-2-2-2---2-|

G|-----------------------------------------------|

D|---------7--------------7----------------------|

A|-----------------------------------------------|

E|-5-5-5-5----5-5-5-5-5-5--5-7-5-0-7-5-0-7-5-3-0-|

-chorus

Post Chorus

G|-----2---2-------------7---7---------|

D|---2---2---2---2-----7---7---7---7---|

A|-0-----------0---0-5-----------5---5-|

E|-------------------------------------|

Ending

G|------------------------------------|

D|---------------------------------5~-|

A|------------------------------------|

E|-777-8-777-8-7-7-5-0-7-5-0-7-5-3----|

Get this song at:  amazon.com sheetmusicplus.com

Share your thoughts

0 Comments found