Afi

Afi - Leaving Song Part 2 guitar tab

Intro

Eb ------19p0-15-14---------------- -15h17-14h15-12~~-|

Bb (12h15)---------h15/19p15p12h15- ------------------|

Gb -------------------------------- ------------------|

Db -------------------------------- ------------------|

Ab --------------------------------X3 ------------------|

Eb -------------------------------- ------------------|

1st Verse

Eb ------------------- -----------------|

Bb ------------------ -----------------|

Gb 12-1-19 -9-9-9-9-- 12-14-9 -9-9-9-9-|

Db x--x--x -x-x-x-x-- x -x -x -x-x-x-x-|

Ab 10-9--7 -7-7-7-7 X2 10-12-7 -7-7-7-7-|

Eb 0--0--0 -0-0-0-0-- 0--0--0 -0-0-0-0-|

Eb -----------------------|

Bb -----------------------|

Gb 7-7-7-7-7-7-----------|

Db 7-7-7-7-7-7-5-5-7-7-7-|

Ab 5-5-5-5-5-5-5-5-7-7-7-|

Eb 5-5-5-5-5-5-3-3-5-5-5-|

Repeat

Pre chorus

Eb 12xx15xx14xx----14xx12 12-00-15-00-14-00-------14-12-121212-151515-14-|

Bb -------------15xx------ ------------------15-00-------121212-151515-15-|

Gb ----------------------- -----------------------------------------------|

Db ----------------------- -----------------------------------------------|

Ab -----------------------X2 -----------------------------------------------|

Eb ----------------------- -----------------------------------------------|

1st Chorus

Eb -----0-0-----------0-0-------------00-0---------------------5---5-5-5/7-7-----------|

Bb -----0-0-----------0-0-------------00-0----------------5-----5 -5-5-5/7-7-----------|

Gb -----0-0-----------0-0-------------00-0------------5-----5----5-5-5-5/7-8-----------|

Db x/--2-2-5-5-5-4-5-2-2-5-5-5-4-5-4-22-2-5-5-5-4-5-7-7-7----7----7-7-7/9-9-2-2/9-9-9-|

Ab x/--2-2-5-5-5-5-5-2-2-5-5-5-5-5-5-22-2-5-5-5-5-5-------------------------2-2/x-x-x-|

Eb x/--0-0-3-3-3-3-3-0-0-3-3-3-3-3-3-00-0-3-3-3-3-3-------------------------0-0/7-7-7-|

2nd Verse

Eb ------------------- -----------------|

Bb ------------------ -----------------|

Gb 12-1-19 -9-9-9-9-- 12-14-9 -9-9-9-9-|

Db x--x--x -x-x-x-x-- x -x -x -x-x-x-x-|

Ab 10-9--7 -7-7-7-7 X2 10-12-7 -7-7-7-7-|

Eb 0--0--0 -0-0-0-0-- 0--0--0 -0-0-0-0-|

Eb -----------------------|

Bb -----------------------|

Gb 7-7-7-7-7-7-----------|

Db 7-7-7-7-7-7-5-5-7-7-7-|

Ab 5-5-5-5-5-5-5-5-7-7-7-|

Eb 5-5-5-5-5-5-3-3-5-5-5-|

Eb ---------------------------------------------------------|

Bb ------------------ ------------------------------------|

Gb 12-1-19 -9-9-9-9 -12-14-12 -12121212---12-14-9 -9-9-9-9-|

Db x--x--x -x-x-x-x -x -x -x --x x x-x----x -x -x -x-x-x-x-

Ab 10-9--7 -7-7-7-7 -10-12-10 -10101010---10-12-7 -7-7-7-7-|

Eb 0--0--0 -0-0-0-0- 0 -0 -0---0-0-0-0----0--0--0 -0-0-0-0-|

Eb -----------------------|

Bb -----------------------|

Gb 7-7-7-7-7-7-----------|

Db 7-7-7-7-7-7-5-5-7-7-7-|

Ab 5-5-5-5-5-5-5-5-7-7-7-|

Eb 5-5-5-5-5-5-3-3-5-5-5-|

2nd Chorus

Eb -----0-0-----------0-0-------------00-0---------------------5---5-5-5/7-7-|

Bb -----0-0-----------0-0-------------00-0----------------5-----5 -5-5-5/7-7-|

Gb -----0-0-----------0-0-------------00-0------------5-----5----5-5-5-5/7-8-|

Db x/--2-2-5-5-5-4-5-2-2-5-5-5-4-5-4-22-2-5-5-5-4-5-7-7-7----7----7-7-7/9-9-|

Ab x/--2-2-5-5-5-5-5-2-2-5-5-5-5-5-5-22-2-5-5-5-5-5-------------------------|

Eb x/--0-0-3-3-3-3-3-0-0-3-3-3-3-3-3-00-0-3-3-3-3-3-------------------------|

Repeat

Bridge

PM .

Eb ---------------------------------------------|

Bb ---------------------------------------------|

Gb ---------------------------------------------|

Db -2222-222-222222-2222-222-222222-2222-222222-|etc

Ab -2222-222-222222-2222-222-222222-2222-222222-|

Eb -0000-000-000000-0000-000-000000-0000-000000-|

All Eb chords PM

Eb -----------------------------------------------------------|

Bb -------------------------5*--------------------------------|

Gb 4------5--------7-4/5/4-5*---4------5--------7-777-7/9-99-|

Db x-2222-x-222222-x-x/x/x---5*-x-2222-x-222222-x-xxx-x/x-xx-|

Ab 2-2222-3-222222-5-2/3/2---5*-2-2222-3-222222-5-555-5/7-77-|

Eb 0-0000-0-000000-0------------0-0000-0-000000--------------|

Interlude

Eb -14- 14 -15--------14 -17 -15--------14 -14 -15------- 17 -17 -19~|

Bb -- -12 -12 -12-12-12 -12 -12 -12-12-12 -12 -12 -12-12-12 -12 -12---|

Gb -------------------------------------------------------------------|

Db -------------------------------------------------------------------|

Ab -------------------------------------------------------------------|

Eb -------------------------------------------------------------------|

Repeat

Eb ---------------------------------------------------------------------------------|

Bb ------------------1313131313131313-16-16-16-16-16-16-16-16-----------------------|

Gb 8-8-8-8-8-8-8-8- 1111111111111111-14-14-14-14-14-14-14-14-----------------------|

Db 7-7-7-7-7-7-7-7 -1010101010101010-13-13-13-13-13-13-13-13-2222-2222-2222-2222-2-|

Ab 6-6-6-6-6-6-6-6- 9-9-9-9-9-9-9-9--12-12-12-12-12-12-12-12-2222-2222-2222-2222-2-|

Eb 0-0-0-0-0-0-0-0 -0-0-0-0-0-0-0-0 -0 -0 -0 -0 -0 -0 -0 -0- 0000-0000-0000-0000-0-|

3rd chorus

Eb -----0-0-----------0-0-------------00-0---------------------5---5-5-5/7-7-|

Bb -----0-0-----------0-0-------------00-0----------------5-----5 -5-5-5/7-7-|

Gb -----0-0-----------0-0-------------00-0------------5-----5----5-5-5-5/7-8-|

Db x/--2-2-5-5-5-4-5-2-2-5-5-5-4-5-4-22-2-5-5-5-4-5-7-7-7----7----7-7-7/9-9-|

Ab x/--2-2-5-5-5-5-5-2-2-5-5-5-5-5-5-22-2-5-5-5-5-5-------------------------|

Eb x/--0-0-3-3-3-3-3-0-0-3-3-3-3-3-3-00-0-3-3-3-3-3-------------------------|

Eb -----0-0-----------0-0-------------00-0---------------------5----------------7-----|

Bb -----0-0-----------0-0-------------00-0----------------5------5 --------7------7---|

Gb -----0-0-----------0-0-------------00-0------------5-----5------5 --7-----7------7-|

Db x/--2-2-5-5-5-4-5-2-2-5-5-5-4-5-4-22-2-5-5-5-4-5-7-7-7----7-------9-9-9----9------|

Ab x/--2-2-5-5-5-5-5-2-2-5-5-5-5-5-5-22-2-5-5-5-5-5----------------------------------|

Eb x/--0-0-3-3-3-3-3-0-0-3-3-3-3-3-3-00-0-3-3-3-3-3----------------------------------|

Ending

Eb --------------------------------------------------5*-|

Bb --------------------------------------------------5*-|

Gb --------------------------------------------------5*-|

Db ----------------------------2222-2222-2222-2222-2----|

Ab 9 -9 -9- 9 -10-9 -9 -9- 9 -2222-2222-2222-2222-2----|

Eb 11-11-11-11-12-11-11-11-11-0000-0000-0000-0000-0----|

Alternate pre chorus

Eb 12*-------------|

Bb --------7*--7*---|

Gb -----5*---7*--7*-|

Db -----------------|

Ab -----------------|

Eb -----------------|

Get this song at:  amazon.com sheetmusicplus.com

Share your thoughts

0 Comments found