Afi

Afi - Missing Frame guitar tab

Tabbed by: Rockford_rocks

Intro

Eb|----------------------------------------------------------|

Bb|----------------------------------------------------------|

Gb|---------4-4--4-2-2--2-4-4--4--------4-4--4-2-2--2--------| x3

Db|---------------------------------------------------4-4--4-|

Ab|--2-2--2----------------------2-2--2----------------------|

Eb|----------------------------------------------------------|

Verse

Eb|-------------------------------------------------------|

Bb|-------------------------------------------------------|

Gb|---7-7-7-7-7-7-7-7-6-6-6-6-6-6-6-6-x2--4-4-4-4-4-4-4-4-|

Db|-------------------------------------------------------|

Ab|-------------------------------------------------------|

Eb|-------------------------------------------------------|

* * * * * * * * * * * * * * * * * * * * * * * *

cont.

Eb|-------------------------------------------------------|

Bb|-------------------------------------------------------|

Gb|---6-6-6-6-6-6-6-6-7-7-7-7-7-7-7-7-6-6-6-6-6-6-6-6-----|

Db|-------------------------------------------------------|

Ab|-------------------------------------------------------|

Eb|-------------------------------------------------------|

* * * * * * * *

(This might be off a bit but it sounds good to me)

Eb|-----------------------------|

Bb|-----------------------------|

Gb|-----------------------------|

Db|-7---------------------------|

Ab|-5-x16------4--x16---1-1-1-1-|

Eb|------------5----------------| (after this repeat the verse again)

Chorus

(let the last chord in each x3 ring)

Eb|--------------------------------------------------------------|

Bb|--------------------------------------------------------------|

Gb|--7------7-----------------------------------------7-----6----|

Db|--7------7-----9------9-------7------7------5------5-x8--5-x8-|

Ab|--5-x3---5-x3--9------9-------7------7------5-----------------|

Eb|---------------7-x3---7-x3----5-x3---5-x3---3-x16-------------|

Interlude

Eb|--14--12--17-------|

Bb|-------------15-14-|

Gb|-------------------|

Db|-------------------|

Ab|-------------------|

Eb|-------------------|

(Use Delay on this)

Eb|------5----5-5------5---5-5-|

Bb|--3-3--3-3--3---2-2--2-2-2--|

Gb|----------------------------|

Db|----------------------------|

Ab|----------------------------|

Eb|----------------------------|

(Turn off delay)

Eb|----------------------------|

Bb|--3-2-3-5-3-5-7-5-3---------|

Gb|----------------------------|

Db|---------------------7------|

Ab|---------------------7------|

Eb|---------------------5------|

That's basically it, just listen carefully to the song and you'll figure it out no problem ^.^

Enjoy!

Added by tabs-database.com and our distinguished partners

Get this song at:  amazon.com sheetmusicplus.com

Share your thoughts

0 Comments found