Afi

Afi - The Leaving Song Part Ii guitar tab

Author/Artist: AFI

Title: The Leaving Song Part II

Album: Sing the Sorrow

Transcribed by: Alex Young

Email: SaintAnger5@yahoo.com

Tune guitars a half step down

Listen to the song to get the rhythm

-|---------t19-0-15-14------------|--------t17/19-15-17-14------------------|-

-|-h12--15-------------t15/19-15--|-h12-15----------------t17---------------|-

-|--------------------------------|-----------------------------------------|-

-|--------------------------------|-----------------------------------------|-

-|--------------------------------|-----------------------------------------|-

-|--------------------------------|-----------------------------------------|-

A:intro

-|-------------------|-------|---------------------|------------------------|-

-|-------------------|-------|---------------------|--7-----8--8/10---------|-

-|--12-----11-----9--|-------|--12-----14/16----9--|--7-----7--7/9----------|-

-|--x------x------x--|-------|--x------x--x-----x--|--7-----7--7/7----------|-

-|--10-----9------7--|-------|--10-----12/14----7--|--5--5--5--5/7----------|-

-|--0----0-0----0-0--|-------|--0----0-0--------0--|--5--5--5---------------|-

B:verses repeat

-|--0--|--12xx15xx14xx10xx14xx12x12xx15xx14xx1010101414--|------------------|-

-|--0--|-------------------------------------------------|------------------|-

-|--0--|-------------------------------------------------|------------------|-

-|--2--|-------------------------------------------------|------------------|-

-|--2--|-------------------------------------------------|------------------|-

-|--0--|-------------------------------------------------|------------------|-

C:

-|--12-0-12-0-0-15-0-0-14-0-010-0-0-14-0-12-0-12-12-12-15-15-15-14b---------|-

-|--------------------------------------------12-12-12-15-15-15-15b---------|-

-|--------------------------------------------------------------------------|-

-|--------------------------------------------------------------------------|-

-|--------------------------------------------------------------------------|-

-|--------------------------------------------------------------------------|-

cont

-|--0-----7------|------------------5---------7----0------------------------|-

-|--0-----8------|--------------------5-------7----0------------------------|-

-|--0--0--9---4--|----5------5----------5-----8----0----7/9--9--------------|-

-|--2--0--9---5--|------7------5----------7/9-9----2----x-x--x--------------|-

-|--2--0--7---5--|------------------------7/9-9----2----5/7--7--------------|-

-|--0--0--7---3--|--5-----5------5------------7----0----0----0--------------|-

D:chorus "my heart away"

-|-------------------------------|---------0--|-----------------------------|-

-|-------------------------------|---------0--|-----------------------------|-

-|-------------------------------|---------0--|-----------------------------|-

-|-------------------------------|---------2--|-----------------------------|-

-|--2-2-2-2--2-2-2--2-2-2-2-2-2--|--2-2-2--2--|-----------------------------|-

-|--0-0-0-0--0-0-0--0-0-0-0-0-0--|--0-0-0--0--|-----------------------------|-

E: . . . . . . . . . . . . . . . .

-|----------------------------------------------------^----|----------------|-

-|----------------------------------------------------5----|----------------|-

-|--4----------5------------------------4/5--4--------5-^--|----------------|-

-|--x----------x-------------------7----x-x--x----------5--|----------------|-

-|--2--2-2-2-2-3--2-2-2-2-2-2-2-2--5--0-2/3--2--2-2-2---5--|----------------|-

-|--0--0-0-0-0----0-0-0-0-0-0-0-0-----0-----0---0-0-0------|----------------|-

F: . . . . . . . . . . . . . . .

-|---------------------------------------7--|-------------------------------|-

-|---------------------------------------8--|-------------------------------|-

-|--4----------5-------------------------9--|-------------------------------|-

-|--x----------x-------------------7-----9--|-------------------------------|-

-|--2--2-2-2-2-3--2-2-2-2-2-2-2-2--5--0--7--|-------------------------------|-

-|--0--0-0-0-0----0-0-0-0-0-0-0-0--0--0--7--|-------------------------------|-

. . . . . . . . . . . .

-|-------------------------------------|-----------17-----------------------|-

-|--19-------19----------20------------|--19--------------20----------------|-

-|-----17-------17/16--------16----16--|-----17---------------16------------|-

-|-------------------------------------|------------------------------------|-

-|--19----19----------19--------19-----|--19----19----19--19------19--19----|-

-|-------------------------------------|------------------------------------|-

G:finger pick

-|-----------------------------------|--19-------17---19--------------------|-

-|--19-------19-------20-------------|--------------0-----------------------|-

-|-----17-------16--------16---------|-----17-------------------------------|-

-|-----------------------------------|--------------------------------------|-

-|--19----19-------19-19-----19--19--|--19----19------19--------------------|-

-|-----------------------------------|--------------------------------------|-

G:cont

-|--------------------------------------|-----------17----------------------|-

-|--19-------19----------20---------19--|--19--------------20---------0-----|-

-|-----17-------17/16--------16---------|-----17------/16-----16------------|-

-|--------------------------------------|-----------------------------------|-

-|--19----19----------19--------19--19--|--19----19--------19-----19--19----|-

-|--------------------------------------|-----------------------------------|-

G:cont

-|-----------------------------------|--------------------------------------|-

-|--19-------19-------20-------------|--------------------------------------|-

-|-----17------/16--------16---------|--------------------------------------|-

-|-----------------------------------|--------------------------------------|-

-|--19----19-------19-19-----19--19--|--------------------------------------|-

-|-----------------------------------|--------------------------------------|-

G:cont

-|--17-------17-------17-------17-------17--------|-------------------------|-

-|------------------------------------------------|-------------------------|-

-|-----17-------17-------17-------17-------17-----|-------------------------|-

-|------------------------------------------------|-------------------------|-

-|--19----19-------19-------19-------19-------19--|-------------------------|-

-|------------------------------------------------|-------------------------|-

G:cont

-|-----------------------------------|--------------------------------------|-

-|-----------------------------------|--------------------------------------|-

-|--8-8-8-8-8-8-8-8-8-8-8-8-8-8------|--------------------------------------|-

-|--7-7-7-7-7-7-7-7-7-7-7-7-7-7------|--------------------------------------|-

-|--6-6-6-6-6-6-6-6-6-6-6-6-6-6------|--------------------------------------|-

-|--0-0-0-0-0-0-0-0-0-0-0-0-0-0-0-0--|--------------------------------------|-

H: . . . . . . . . . . . . . .

-|--------------------------------------------------------------------------|-

-|--1313131313131313131313131313-13/16-1616161616161616161616161616---------|-

-|--1111111111111111111111111111-11/14-1414141414141414141414141414---------|-

-|--1010101010101010101010101010-10/13-1313131313131313131313131313---------|-

-|--9-9-9-9-9-9-9-9-9-9-9-9-9-9--9-/12-1212121212121212121212121212---------|-

-|--0-0-0-0-0-0-0-0-0-0-0-0-0-0--------0-0-0-0-0-0-0-0-0-0-0-0-0-0-0-0------|-

H:cont

-|---------------------|----------------------------------------------------|-

-|---------------------|----------------------------------------------------|-

-|---------------------|----------------------------------------------------|-

-|---------------------|----------------------------------------------------|-

-|---------------------|----------------------------------------------------|-

-|--7-5-0-7-5-0-7-5-0--|----------------------------------------------------|-

H:end(trem picking)

-|----------------5-----------5-------|----------------5--------------------|-

-|----------5-------5---------5-------|----------5-------7------------------|-

-|----5-------5-------5--5-5--5-------|----5-------5-------7-7-7------------|-

-|------7----------------7-7--7-------|------7-------------7-7-7------------|-

-|----------------------------7--5-5--|----------------------5-5------------|-

-|--5-----5-----5-------------5--5-5--|--5-----5-----5---------5------------|-

end . . . . . . . . . . . . .

-|--7--------|-----------------------5^-------------------------------------|-

-|--7--------|-----------------------5^-------------------------------------|-

-|--8--------|-----------------------5^-------------------------------------|-

-|--9--------|--------------------------------------------------------------|-

-|--9----9---|--------------------------------------------------------------|-

-|--7----11--|--7--5--0--7--5--0--0-----------------------------------------|-

trem picking

Get this song at:  amazon.com sheetmusicplus.com

Share your thoughts

0 Comments found