Afi

Afi - Porphyria Cutanea Tarda bass tab

-Music X Tabs.net-

BAND: A Fire Inside

SONG: Porphyria Cutanea Tarda

ALBUM: Black Sails in the Sunset

BASSIST: Hunter

TUNING: Standard (EADG)

-Intro-

G[-------------------------------------]

D[-------------------------------------]

A[-2-2---2-2-2---2-2-2---2-2-2---2-----]

E[---------------------------------0-0-]

-Verse-

G[--------------------------][--------------------------]

D[-------------0------------][-------------0------------]

A[----1-0----3------0--0----][----1-0----3------0-------]

E[-0------3-------3------3--][-0------3-------3------0--]

-Chorus-

(4th time only)

G[------------] [---------]

D[------------] [---------]

A[-3--5-------] [-3--5----]

E[-------3--0-] [-------0-]

-Break-

G[---------------------]

D[---------------------]

A[----1-0--------------]

E[-0-------3--5-0------]

-End Verse-

G[--------------------]

D[----2-0-------------]

A[---------3----------]

E[-0----------3--5--0-]

Get this song at:  amazon.com sheetmusicplus.com

Share your thoughts

0 Comments found