Red Hot Chili Peppers

Under The Brgidge(downtown) Bass Tabs



More from Red Hot Chili Peppers

Red Hot Chili Peppers Tabs
Red Hot Chili Peppers Chords
Red Hot Chili Peppers Bass
Red Hot Chili Peppers Lyrics



This is a nice little riff, which I have got great fun from. It is simple and
has normal tuning.
There is no intro or first verse for the bass, so be patient till the chorus.
Here it is
G:-6------4-------------------|-6------4------------------------|
D:-4--2-2---2-------2-4--4-4--|-4--2-2---2-------2-4--4H64H6-4--|
A:------------4-2-4-----------|------------4-2-4----------------| x2
E:----------------------------|---------------------------------|
Then we have the verse, which is very easy.
G---------|-------|---------|---------------
D---------|-------|---------|---------------
A------2--|---0---|------2--|-4--0-0--------
E-0-------|-4-----|-0-------|---------------
rEPEAT X2 then it's back to the chorus.
Then the outro, which is nice. Quite quick.
G---9---------------7----------7-------------:
D-7---7-10--7-5-7-5---5-3--5H7---7H5---------:
A--------------------------------------------:
E--------------------------------------------:
Repeat for a while.
That's all, Enjoy
Al



Get this song at amazon.com      Ebay     Ringtones Ringtones  


Learn to play: Songwriting, Piano, Harmonica, Guitar
More Red Hot Chili Peppers lyrics available at Muzikum

Related Red Hot Chili Peppers Bass Tabs

She's Only 18 (correct) bass
Spicy Salsa Jam bass
Subway To Venus bass
Under The Bridge "gutar Start" bass
Slane Castle Jam #1 bass
Road Trippin bass
Yertle The Turtle bass
Tearjerker bass
Knock Me Down bass
Castles Made Of Sand bass
Battle Ship bass
Readymade bass
Rare Bass Solo bass
Savior bass
She's Only 18 bass
Me And My Friends bass
Mellowship In Slinky B Major bass
What It Is (ninas Song) bass
Dani California (correct) bass
Around The World bass


Guitar Tabs









All tabs are property and copyright of their owners. All tabs provided for educational purposes only. Privacy Policy, DMCA