Red Hot Chili Peppers

Red Hot Chili Peppers - Hyde Park: Bass Solo #1 bass tab

INTRO TO THROW AWAY YOUR TELEVISION

RED HOT CHILI PEPPERS

BASS TAB

LIVE AT HYDE PARK DISK 2

its about 75% correct cos its so hard to tab cos flea is so good

---------------------------------------------------

----------------------------10-10-----------------------------------

-0-0-3-0-5-7-0-10-10-12---12------12----12---------0-3-5-3-0------------------------------------

-------------------------------------12----12-10--------------3--------------------------

---------------------11-9----11-9----11-9----11-9----9----9----------

---------------5-7-0------10------10------10------10---10---10---------

-0-3-0-5/7-0--------------------------------------------------

--------------------------------------------------------

--------------------------------

--------------------------------

12-12-10----7-7-5-0-3-5-3-------

----------8---------------3-----

--------------------------------

--------------------------------

0------0-0---0-3-0-5-3-0------------------

--1-1--------------------3----------------

--------------------------------

--------------------------------

0-------0--0-3-0-2/3-----------

--1-1-3------------------------

--------------------------------

--------------------------------

-0-------0--/7--5-3-------------------

---1-1-3----------------------------

--------------0---2-0--------------

----------------2-----2-0-2---------

-0--3--0--3-5---------------3---------

--------------------------------

-----------------------------------

-----------------------------------

-0-3-0--3-5--10---12-10----------3-

----------------12------12-10-12---

------/9-7-5---

---2----------

--------------

-------------

-2-2-0------------------------------

-------0-2-2-0---------------5-2----

---------------0-3-5-0-3-3-5-----3--

------------------------------------

------------------------------------------

----------------------------------5-2-----

-12-12-10-------------0-3-5-3-3-5-----3---

----------10-12-12-10---------------------

That orta hold ya

Get this song at:  amazon.com sheetmusicplus.com

Share your thoughts

0 Comments found