Red Hot Chili Peppers

Red Hot Chili Peppers - Meister bass tab

Intro:

G|----12--------11--------10-------9-

D|-12-----12-11-----11-10-----10-9---

A|-----------------------------------

E|-----------------------------------

Verse: (Repeat 3x)

G|-----------------------------------------------------

D|---5---4-5----5---4-5---------5---4-5----7-------5-4-

A|-7---7------7---7-----------7---7------7---4-5-7-----

E|-----------------------5-5---------------------------

Chorus:

G|----------------------7-8-------------------------------------------7-8-

D|-9--9-7-9-7----9--9-7------9--9-7-9-7----------9--9-7-9-7----9--9-7-----

A|------------9-------------------------9--9--7-------------9-------------

E|------------------------------------------------------------------------

G|-------------------------------------------------7-8--------------------

D|-9--9-7-9-7------9---9---9--9--9-7-9-7----9--9-7-----9--9-7-9-7---------

A|------------9--7---8---9---------------9------------------------9--9--7-

E|------------------------------------------------------------------------

G|----------------------7-8----------------------

D|-9--9-7-9-7----9--9-7-------9--9-7-9-7---------

A|------------9--------------------------789-7-5-

E|-----------------------------------------------

Instrumental: (Repeat 3x)

G|-----------------------------------------------------

D|-----------------------------------------------------

A|---3---2-3----3---2-3--5-5----3---2-3----5-------3-2-

E|-5---5------5---5-----------5---5------5---2-3-5-----

G|-----------------------------------------------------------

D|-----------------------------------------------------------

A|-3--3-3--3----2--2-2--2----3--3-3--3---5--5-5--5----5----5-

E|-----------------------------------------------------------

Ending:

G|---------6-------------7-------------6-----8--5----------

D|------5-----7-------5-----7-------5-----7--------7--5----

A|----7-------------7-------------7------------------------

E|-5-------------5-------------5-------------------------5-

Get this song at:  amazon.com sheetmusicplus.com

Share your thoughts

0 Comments found