Red Hot Chili Peppers

Red Hot Chili Peppers - Bicycle Song bass tab

Bicycle Song

INTRO:

G------------------|

D-------4----0h2---|

A-5555----2------4-|

E------------------|

G------------------|

D-------4----------|

A-5555----2--0h4-2-|

E------------------|

G------------------|

D-------2----------|

A-2222----5--0h4-2-|

E------------------|

G---------------|

D-------2-5--5--|

A-2222----------|

E---------------|

VERSE:

G------------------|

D-------4----0h2-4-|

A-5555----2--------|

E------------------|

G------------------|

D-------4----------|

A-5555----2--0h4-2-|

E------------------|

G------------------|

D-------2----------|

A-2222----5--0h4-2-|

E------------------|

G---------------|

D-------2-------|

A-2222----5-----|

E------------3--|

G---------------|

D-------2-------|

A-2222----------|

E---------3--3--|

G------------------|

D-------4----0h2-4-|

A-5555----2--------|

E------------------|

G------------------|

D-------4----------|

A-5555----2--0h4-2-|

E------------------|

G------------------|

D-------2----------|

A-2222----5--0h4-2-|

E------------------|

G--------------|

D-------2------|

A-2222---------|

E---------3~~~-|

G--------------|

D-------2------|

A-2222---------|

E---------3~~~-|

CHORUS: (// = slide)

G-----------5-----7-9-11-9-7-5-|

D----5-------------------------|

A--------3---3--5--------------|

E-3---3------------------------|

G-----------5-----7h9-11-9-11-9-7-5-|

D----5------------------------------|

A--------3---3--5-------------------|

E-3---3-----------------------------|

G-----------5-----7-9--9//11--9-7-|

D----5----------------------------|

A--------3---3--5-----------------|

E-3---3---------------------------|

G-----------5-----7---7---|

D----5--------------------|

A--------3---3--5---5---5-|

E-3---3-------------------|

POST-CHORUS:

G--------------------7------7--|

D-----------2-5----7--7----7-7-|

A----2-5-3------5-------5------|

E-3----------------------------|

G--------------------7------7--|

D-----------2-5----7--7----7-7-|

A----2-5-3------5-------5------|

E-3----------------------------|

G--------------------7------7--|

D-----------5-2----7--7----7-7-|

A----5-2-3------5-------5------|

E-3----------------------------|

G------------------------|

D-----------2-5----------|

A----2-5-3-------5-5~~~~-|

E-3----------------------|

Get this song at:  amazon.com sheetmusicplus.com

Share your thoughts

0 Comments found