Red Hot Chili Peppers

Red Hot Chili Peppers - Parellel Universe guitar tab

~~~~~~~~~~~~~~~~Red Hot Chili Peppers~~~~~~~~~~~~~~~

"Parallel Universe"

from: Californication

When I first listened to this song I didn't realize that

that it was the base that you can clearly hear and that

the guitar is palm muting during the most of the song.

So the bass is actually leading the way and the guitar is

palm muting.

The notes are played I believe at 32nd notes so I was not able

to tab out just how many times each not is played This first

piece of the tab makes up most of the song.

pm= palm mute

\= slide

intro/verse repeat ? times

pm.................................................

e:-------------------------------------------------|

b:-------------------------------------------------|

g:-------------------------------------------------|

d:-------------------------------------------------|

a:-3\-1\-9\-10\-7\-9\-8\-7\-5\---------------------|

E:-------------------------------------------------|

Chorus:

Where Anthony is saying

"Christ I'm a sidewinder, I'm a California king"

use distortion

C Bb E D C

e:-------------------------------------------------|

b:-------------------------------------------------|

g:-555--333--99--7777--5---------------------------|

d:-555--333--99--7777--5---------------------------|

a:-333--111--77--5555--3---------------------------|

E:-------------------------------------------------|

I'm not sure what this part is called. The bass starts then

the guitar comes in again ? on how many each note is played

it is easy to find out if you just play along with the song

e:-------------------------------------------------|

b:-------------------------------------------------|

g:-------------------------------------------------|

d:-------------------------------------------------|

a:--10--9--7--5------------------------------------|

E:-------------------------------------------------|

i didn't figure out the solo it sounds like john is playing the same as

the

verses but with a wah-wah pedal. Good luck

Any questions e-mail me at. eatatmoes@hotmail.com

Jason

Get this song at:  amazon.com sheetmusicplus.com

Share your thoughts

0 Comments found