Red Hot Chili Peppers

Red Hot Chili Peppers - Around The World2 bass tab

#

                          BASSLINE FOR AROUND THE WORLD

                      As recorded by Red Hot Chili Peppers

                         (Released as a Single in 1999)

Words and Music by Anthony Kiedis, Flea, John Frusciante, Chad Smith

Arranged by Robert "Bob" Eckhardt

  M.M. = 101

|----------|-------------|h7-9-9h7-9-9h7-9-9h7-9-7----------|

|----------|-------------|-------------------------9-8-7-5--|

|-S--------|-S--S--S--S--|----------------------------------|

|-0--------|-0--0--0--0--|----------------------------------|

|h7-9-9h7-9-9h7-9-9-7-------------|h7-9-9h7-9-9h7-9-9h7-9-7----------|

|---------------------9-8-7-5-----|-------------------------9-8-7-5--|

|-----------------------------7-5-|----------------------------------|

|---------------------------------|----------------------------------|

|h7-9-9h7-9-9h7-9-9-7-------------|h7-9-9h7-9-9h7-9-9h7-9-7----------|

|---------------------9-8-7-5-----|-------------------------9-8-7-5--|

|-----------------------------7-5-|----------------------------------|

|---------------------------------|----------------------------------|

|h7-9-9h7-9-9h7-9-9-7-------------|h7-9-9h7-9-9h7-9-9h7-9-7----------|

|---------------------9-8-7-5-----|-------------------------9-8-7-5--|

|-----------------------------7-5-|----------------------------------|

|---------------------------------|----------------------------------|

|h7-9-9h7-9-9h7-9-9-7-------------|----------|---|

|---------------------9-8-7-5-----|----------|---|

|-----------------------------7-6-|----------|---|

|---------------------------------|-3\-------|---|

||-----10--12--------9--10--|----10--12--------10-9-----|

||o-------------------------|-----------------------8---|

||o-------------------------|---------------------------|

||--3----------0--1---------|-3----------0--1-----------|

|----10--12--------9--10--|----10--12-----------------|

|-------------------------|------------------3-2------|

|-------------------------|----------------1-----1----|

|-3----------0--1---------|-3----------1-3---------1--|

|----10--12--------9--10--|----10--12---------------|

|-------------------------|-------------------------|

|-------------------------|-----------x-------------|

|-3----------0--1---------|-3-----------6tr7--5tr6--|

                                                    Pluck w/ Thumb

                                                      PM   PM-|

|----10--12--------9--10--|----10--12--------------||------5--8---|

|-------------------------|--------------------3-5-||-6-----------|

|-------------------------|-----------------1------||-------------|

|-3----------0--1---------|-3----------1-3---------||-------------|

  PM----|   PM--|    PM PM   PM--------|   PM--|    PM-|

|-------7---7-|---------5--|-----------------|------5--8---|

|-5---5-------|-3----6-----|-----------5---5-|-6-----------|

|-------------|------------|-3-3-(3)-3-------|-------------|

|-------------|------------|-----------------|-------------|

                           1.

  PM------------|    PM PM   PM  PM----|

|-------7---7-|---------5--|--------------|---------||

|-5---5-------|-3----6-----|-------5\--9\-|--------o||

|-------------|------------|-3---3--------|--------o||

|-------------|------------|--------------|-3-------||

  2.

|-----------10--||-h7-9-9h7-9-9h7-9-9h7-9-7---------|h7-9-9h7-9-9h7-9-9-7---------------||

|---------------||o-------------------------9-8-7-5-|---------------------9-8-7-5------o||

|-------10------||o---------------------------------|-----------------------------7-5--o||

|-8---8---------||----------------------------------|-----------------------------------||

                                                ~~~~~~~~      ~~

|----10--12--------9--10--|----10--12--12-10----------------------||

|-------------------------|------------------12-10b11r10-(10)-10--||

|-------------------------|---------------------------------------||

|-3----------0--1---------|-3-------------------------------------||

|----10--12--------9--10--|----10--12--------10-9-----|

|-------------------------|-----------------------8---|

|-------------------------|---------------------------|

|-3----------0--1---------|-3----------0--1-----------|

|----10--12--------9--10--|----10--12-----------------|

|-------------------------|------------------3-2------|

|-------------------------|----------------1-----1----|

|-3----------0--1---------|-3----------1-3---------1--|

|----10--12--------9--10--|----10--12---------------|

|-------------------------|-------------------------|

|-------------------------|-----------x-------------|

|-3----------0--1---------|-3-----------6tr7--5tr6--|

|----10--12--------9--10--|------------------------------|

|-------------------------|---------------------3---3-5--|

|-------------------------|-------------1-0-3-5---5------|

|-3----------0--1---------|-3--1--0-1-3------------------|

|-----------------8-(8)------|---7--7-(7)-----------|------------------------|

|-6-6-(6)-x-6-(6)-------6----|-5-5--5-(5)-5-(5)---5-|-3-3--x-3-(3)--5-6-5-3--|

|--------------------------5-|----------------------|------------------------|

|----------------------------|------------------3---|------------------------|

|--------------------------|------------------------|-----------------|-----------------|

|-1------------------------|------------------------|-----------------|-----------------|

|---3--3-(3)-0-3-(3)-0-----|----------------6-5-3---|-----------------|-----------------|

|----------------------x-x-|-4--(4)-0-4-(4)-------4-|-3-3--3-(3)---3\-|-1--3-3-4-4-6-6--|

|------------------------|-----------------8-(8)------|---7--7-(7)------------|

|------------------------|-6-6-(6)-x-6-(6)-------6--0-|-5-5--5-(5)-5-(5)---5--|

|-6----------------------|----------------------------|-----------------------|

|---8--8-(8)-10-11-13-15-|----------------------------|------------------3----|

|-----------------------|--------------------------|-------------------------|

|-3-3--x-3-(3)--5-6-5-3-|-1------------------------|-------------------------|

|-----------------------|---3--3-(3)-0-3-(3)-0-----|----------------6-5-3----|

|-----------------------|----------------------x-x-|-4--(4)-0-4-(4)-------4--|

|-----------------|----------------------|--------------||

|-----------------|------3-(3)-x-5-6-5-3-|--------------||

|-----------------|----------------------|-6----(6)-----||

|-3-3--3-(3)---3\-|-1-1------------------|--------------||

|-----------------------------------|------------------------------------|

|-0-3-2-0-(0)-0-0-(0)-0-0-(0)-------|-0-3-2-0-(0)-0-0-(0)-0-0-(0)--------|

|----------------------------h0p3-0-|----------------------------h0p3-0--|

|-----------------------------------|------------------------------------|

|-----------------------------------|------------------------------------|

|-0-3-2-0-(0)-0-0-(0)-0-0-(0)-------|-0-3-2-0-(0)-0-0-(0)-0-0-(0)--------|

|----------------------------h0p3-0-|----------------------------h0p3-0--|

|-----------------------------------|------------------------------------|

|-----------------------------------|------------------------------------|

|-0-3-2-0-(0)-0-0-(0)-0-0-(0)-------|-0-3-2-0-(0)-0-0-(0)-0-0-(0)--------|

|----------------------------h0p3-0-|----------------------------h0p3-0--|

|-----------------------------------|------------------------------------|

|-----------------------------------|------------------------------------|

|-0-5-3-0-(0)-0-0-(0)-0-0-(0)-------|-0-3-2-0-(0)-0-0-(0)-0-0-(0)--------|

|----------------------------h0p3-0-|----------------------------h0p3-0--|

|-----------------------------------|------------------------------------|

|-----------------------------------|------------------------------------|

|-0-3-2-0-(0)-0-0-(0)-0-0-(0)-------|-0-3-2-0-(0)-0-0-(0)-0-0-(0)--------|

|----------------------------h0p2-0-|----------------------------h0p3-0--|

|-----------------------------------|------------------------------------|

|-----------------------------------|------------------------------------|

|-0-3-2-0-(0)-0-0-(0)-0-0-(0)-------|-0-3-2-0-(0)-0-0-(0)-0-0-(0)--------|

|----------------------------h0p3-0-|----------------------------h0p3-0--|

|-----------------------------------|------------------------------------|

|-----------------------------------|------------------------------------|

|-0-3-2-0-(0)-0-0-(0)-0-0-(0)-------|-0-3-2-0-(0)-0-0-(0)-0-0-(0)--------|

|----------------------------h0p3-0-|----------------------------h0p3-0--|

|-----------------------------------|------------------------------------|

|----------------------------------|---------------------------*|

|-0-3-2-0-0\-5-5-(5)-5-5-(5)-------|-0-3-2-0-0\-7-7-(7)-7-7-7--*|

|---------------------------h0p3-0-|---------------------------*|

|----------------------------------|---------------------------*|

--------------------------------------------------------------------------------

Legend

------

h  = hammer-on |  = bar

p  = pull-off ||  = double bar

b  = bend ||* = repeat start

r  = bend release *|| = repeat end

/  = slide up/down *|  = double bar (end)

[5] = nat. harmonic !  = repeat beat (?,8th)

= art. harmonic !!  = repeat beat (16th)

~  = vibrato %  = repeat measure

tr = trill :  = bar (freetime)

T  = tap du  = tremolo bar dip

TP = trem. picking d  = tremolo bar down

PM = palm muting u  = tremolo bar up

S  = slap ud  = tremolo bar inverted dip

P  = pop =  = hold (bend or tremolo bar)

--------------------------------------------------------------------------------

******************************************************************************************

* This file was generated with Power Tab Editor - Get it at http://home.tct.net/~blarsen *

******************************************************************************************

Get this song at:  amazon.com sheetmusicplus.com

Share your thoughts

0 Comments found