Red Hot Chili Peppers

Red Hot Chili Peppers - Under The Bridge Intro On Bass bass tab

This is supposed to be played on the guitar but it is good

on both especaially when played in sync with one another, i

also find this easier to play than the other tabs.

G-8---------8-------------------3--

D------7------9--------------4----4

A----9-----------4-2-------4---4---

E-10-----10----------5-4-2---------

G--------------------7h9p7-------

D-4-2------------7---------7--4/6

A-----5-2-4/5--9--------------5/7

E------------------10------------

G--------3------------------------7--

D-----4----4--4-2------------7------7

A---4---4---------5-2-4/5--9---------

E-2----------------------------10----

G----------------3--

D-------------4----4

A-4-2-------4---4---

E-----5-4-2---------

G--------------------7h9p7-------

D-4-2------------7---------7--4/6

A-----5-2-4/5--9--------------5/7

E------------------10------------

G--------3---3----

D-----4----4---4--

A---4---4--------4

E-2---------------

It sounds right to me but plz give feedback

Get this song at:  amazon.com sheetmusicplus.com

Share your thoughts

0 Comments found