Red Hot Chili Peppers

Red Hot Chili Peppers - My Lovely Man bass tab

Played on a four-string fretted bass.

s: slap

p: pop

h: hammer on

p: pull

x: muted note

/: slide up

\: slide down

Verse:

G:---------------------7---------------------------7-------------------------------------

D:-------------7-5-7/9---9p7-5-------------7-5-7/9---9p7-5-------------------------------

A:-7-5-7-5-7-5-----------------7-5-7-5-7-5-----------------------------------------------

E:---------------------------------------------------------------------------------------

Chorus:

G:---------------------------------------------------------------------------------------

D:---------------------------------------------------------------5-----------------------

A:-0---0-0---0h2-2-2-2-2-2-2-2-/5h7-7-7-5h7-7-7-7-7-/5h7-7-7-5h7---7-5-------------------

E:---3-----3-----------------------------------------------------------------------------

Bridge:

G:-------------------------7-7-9-9-------------------------7-7---------------------------

D:-------5-5-5-7-7-7-9-9-9---------------5-5-5-7-7-7-9-9-9-----9-9-----------------------

A:-7-7-7---------------------------7-7-7-------------------------------------------------

E----------------------------------------------------------------------------------------

Guitar solo:

G:---------------------------------------------------------------------------------------

D:---------------------------------------------------------------------------------------

A:-7-5-7-5-7-5---------5--------7-5-7-5-7-5---------5------------------------------------

E:-------------5-3-5/7---7p5-3--------------5-3-5/7---7p5-3------------------------------

Before the song ends he does this little fill:

G:----------12----12h14-12---------------------------------------------------------------

D:-------12----14-------------12---------------------------------------------------------

A:----14-------------------14----14-12\--------------------------------------------------

E:-12------------------------------------------------------------------------------------

Outro:

The outro is full of ad libs, but the final thing Flea does is this:

G:---------------------------------------------------------------------------------------

D:---------------------------------------------------------------------------------------

A:-0-0-0-2-2-2---------------------------------------------------------------------------

E:-------------0-0-0---------------------------------------------------------------------

If you have any comments or corrections, please tell me. Thanks,

and enjoy!!!

Get this song at:  amazon.com sheetmusicplus.com

Share your thoughts

0 Comments found