Red Hot Chili Peppers

Red Hot Chili Peppers - Around The World3 guitar tab

Artist: Red Hot Chili Peppers

Song: Around the world(Album Californication)

Tabbed by: John Leadman

Intro: (6x)

-/12-12--/12--12--/12--12--12--12--12-----------------------------------------

-/12-12--/12--12--/12--12--12--12--12-----------------------------------------

-/9--9---/9---9---/9---9---9---9---9------------------------------------------

------------------------------------------------------------------------------

------------------------------------------------------------------------------

------------------------------------------------------------------------------

                                                                      

      

Verse: (10x)

------------------------------------------------------------------------------

------------------------------------------------------------------------------

------------------------------------------------------------------------------

-0h3h5p3h5p3h5---0h3h5p3h5----------------------------------------------------

------------------------------------------------------------------------------

------------------------------------------------------------------------------

                                                                      

      

Chorus:

The chords for the chorus are the following. Just strum them.

Cm   Bbm  Gm   Fm

-3----1----3----1-------------------------------------------------------------

-4----2----3----1-------------------------------------------------------------

-5----3----3----1-------------------------------------------------------------

-5----3----5----3-------------------------------------------------------------

-3----1----5----3-------------------------------------------------------------

-3----1----3----1-------------------------------------------------------------

                                                                      

      

Play the Intro 4 times, and then play this bit 4 times.

-/12--12-12--12-12-12--12-12-12-----------------------------------------------

-/12--12-12--12-12-12--12-12-12-----------------------------------------------

-/9---9--9---9--9--9---9--9--9------------------------------------------------

------------------------------------------------------------------------------

------------------------------------------------------------------------------

------------------------------------------------------------------------------

                                                                      

      

Outro:

These are the chords. Strum them up and down.

Dm  Em  Dm    Dm  Em  Dm  Em     Dm  Em  Dm    Dm  Em  Dm

-1---3---5-----1---3---5---10-----1---3---5-----1---3---5\--------------------

-3---5---6-----3---5---6---10-----3---5---6-----3---5---6\--------------------

-2---4---7-----2---4---7---10-----2---4---7-----2---4---7\--------------------

------------------------------------------------------------------------------

------------------------------------------------------------------------------

------------------------------------------------------------------------------

Get this song at:  amazon.com sheetmusicplus.com

Share your thoughts

0 Comments found