Red Hot Chili Peppers

Red Hot Chili Peppers - Hyde Park: Bass Solo #3 bass tab

Song: Hyde Park Solo

Artist: Flea (Micheal Balzary)

Album: live At Hyde Park

Tabber: Dean bailey (92funkybass92)

Tuning: Normal Tuning (G D A E)

Solo

G|----------------------------------------------------------------|

D|----------------------------10-10-------------------------------|

A|-----3---5-7---10-10-12---12------12----12-----------3-5-3------|

E|-5-5---5-----5-----------------------12----12-10---5-------5--3-|

G|---------------------11-9----11-9----11-9----11-9----9----9----|

D|---------------5-7--------10------10------10------10---10---10-|

A|---3---5/7---------5-------------------------------------------|

E|-5---5-----5---------------------------------------------------|

G|-----------------------------|

D|-----------------------------|

G|-12-12-10----7-7-5---3-5-3---|

E|-----------8-------5-------3-|

G|----------------------------|

D|----------------------------|

A|-0------0-0-----3---5-3-----|

E|---1-1--------5---5-----5-3-|

G|----------------------|

D|----------------------|

A|--------------3---2/3-|

E|-5-1-1-3-5--5---5-----|

G|--------------------|

D|--------------------|

A|------------/7--5-3-|

E|-5-1-1-3-5----------|

G|--------------0---2-0---------|

D|----------------2-----2-0-2---|

A|----3-----3-5---------------3-|

E|-5-----5----------------------|

G|-----------------------------------|

D|-----------------------------------|

A|---3----3-5--10---12-10----------3-|

E|-5---5----------12------12-10-12---|

G|----/9-7-5-|

D|-2---------|

A|-----------|

E|-----------|

G|-2-2-0-----------------------------|

D|-------0-2-2-0---------------5-2---|

A|-----------------3-5---3-3-5-----3-|

E|---------------5-----5-------------|

G|----------------------------------------|

D|----------------------------------5-2---|

A|-12-12-10---------------3-5-3-3-5-----3-|

E|----------10-12-12-10-5-----------------|

G|-----------------------|------------------------|

D|-----------------------|-----2---2-2--2-2-------|

A|-----------------------|--------------------3-3-|

E|-5--5-5-0-5-5--5-0-5-3-|-0-0---0----------0-----|

It sound really good how flea makes it go into throw away your television :)

Get this song at:  amazon.com sheetmusicplus.com

Share your thoughts

0 Comments found