Red Hot Chili Peppers

Red Hot Chili Peppers - Warlocks bass tab

-----------------------------------------------------------------------------

Warlocks - The Red Hot Chili Peppers

-----------------------------------------------------------------------------

Tabbed By : Kevin A. (Felas_Kevin)

e-mail: vekiskev@yahoo.com

Tuning: standard

This is a really awesome song. Your going to have to listen to it to get the timing down

its pretty much impossible to express through tablature. Enjoy :)

Update: Thanks snakeyes9510, i found verse was a little off. Tab should be perfect now.

Intro & First Verse:

G|-------------------------------------------------------------------|

D|-------------------------------------------------------------------|

A|---575---57------575------57------575---57------575---57-----------|

E|-7-----7----0--7-----7--7----0--7-----7----0--7-----7----0-3-5-6-7-|

(0:11)

G|--------------------------------------------------------------|

D|------------------------------------------------------5-7-5---|

A|---575---57------575---57------575---57------575---5-7-7---7--|

E|-7-----7----0--7-----7----0--7-----7----0--7-----7------------|

G|------------------------------9p7--------|

D|-----------------------------------------|

A|---575---57--------575---57--------------|

E|-7-----7----0-0--7-----7----0------------|

G|-------------------------------------|

D|-------------------------------------|

A|---575---57------575---57------------|

E|-7-----7----0--7-----7----0---5-7----|

First Chorus:

G|--------------------------------------------|

D|--------------------------------------------|

A|-/7-77-7x-7-x-10-9x---------10-9-7x---------|

E|-------------------/8-8-88x-----------------|

G|-----------------------------------|

D|-----------------------------------|

A|--------------5-------------555----|

E|-/5-55-5x-5h7---7-5--x-333---------|

G|--------------------------------------------|

D|--------------------------7-----------------|

A|-/7-77-7x7x-10-9x----------10-9-7x----------|

E|-----------------/8-8-88x-------------------|

G|-----------------------------------|

D|-----------------------------------|

A|--------------5-------------555----|

E|-/5-55-5x-5h7---7-5--x-333---------|

2nd Verse:

G|-----------------------------------------------------7----7----|

D|----------------------------------------------------7-7-57-75--|

A|-575---57------575---57------575---57------575---57------------|

E|-----7----0--7-----7----0--7-----7----0--7-----7---------------|

G|------------------------------------------------97-----------|

D|--------------------------------------------------97x575-----|

A|---575---57------575---57------575---57------575-------------|

E|-7-----7----0--7-----7----0--7-----7----0--7-----------------|

G|-----------------------------------------------------------|

D|-----------------------------------------------------------|

A|---575---57------575---57-------575---57------575---57-----|

E|-7-----7----0--7-----7----0-3-5-----7----0--7-----7----0---|

Second Chorus:

G|--------------------------------------------|

D|--------------------------------------------|

A|-/7-77-7x-7-x-9-10x---------10-9-7x---------|

E|-------------------/8-8-88x8----------------|

G|-----------------------------------|

D|-----------------------------------|

A|--------------5-------------555----|

E|-/5-55-x-5h7---7-5x----333---------|

G|--------------------------------------------|

D|--------------------------7-----------------|

A|-/7-77-7x7x-10-9x----------10-9-7x----------|

E|-----------------/8-8-88x-------------------|

G|-------------------------------------|

D|-------------------------------------|

A|--------------7-5-------------555----|

E|-/5-55-5x-5h7-----7-5x---333---------|

Third Verse:

G|---------------------------4---------------|

D|-----------------------5-7--------------5--|

A|-575---57------575---57--------575---57----|

E|-----7----0--7-----7---------7-----7-------|

Bridge:

G|-----------------------------------------------------------------------|

D|-----------------------------------------------------------------------|

A|--------------5557755---------55-77-88-10-10-88-77---------------------|

E|-8(x32)-7(x24)--------8(x16)88--------------------88---7(x16)s19(x16)--|

Guitar Solo:

(2:08)

G|-----------------------------------------------7----------|

D|---------------------------------------5--7--9------5-7-5-|

A|-575---57------575---57------575---57------------5h7------|

E|-----7----0--7-----7----0--7-----7----0-------------------|

G|---------------------------------------4---|

D|-----------------------------------5-7-----|

A|----575---57------575---57------57---------|

E|--7-----7----0--7-----7----0--7------------|

Fourth Verse:

G|---------------------------------------------------------|

D|---------------------------------------------------------|

A|-575---57------575---57------575---57------575-----------|

E|-----7----0--7-----7----0--7-----7----0--7-----0-6-5-3~--|

Final Chorus:

G|--------9-------------------------------|

D|----------------------------------------|

A|-/7-77x---7-10-9x-------10-9-7x---------|

E|-----------------/8-88x8----------------|

G|---------------------------------|

D|---------------------------------|

A|------------5-7-5---------555----|

E|-/5-55-x-5h7-----7x--333---------|

G|-----------------------------------------------|

D|--------------------------------7--------------|

A|-/7-77-7x-7-10-9 7-----------10---10-9-7-------|

E|-------------------/8-88-88x8-----------10-7---|

G|--------------------------------|

D|--------------------------------|

A|-----------5-7-5---------555----|

E|-/5-55x-5h7-----7-5--333--------|

G|---------------------------------------|

D|----------------------7----------------|

A|-/7-77-7x-7x-10-9-------10-9-7-9-------|

E|-----------------/8-88-----------10----|

G|-------------------------------|

D|-------------------------------|

A|------------5----------55------|

E|-/5-55x-5h7---7-5--33-----0~---|

There you go, please rate.

Email me with any comments or corrections.

=============================================================================

| / slide up

| slide down

| h hammer-on

| p pull-off

| ~ let ring

| + harmonic

| x Mute note

=============================================================================

Get this song at:  amazon.com sheetmusicplus.com

Share your thoughts

0 Comments found