Red Hot Chili Peppers

Red Hot Chili Peppers - Joe Bass guitar tab

Song: Joe (B-Side)

Album: Stadium Arcadium

Tabbed By: Justin K.

Intro

G---------------------------------------------------------|

D-----5-2-------------------------------------------------|

A----------5------2---------------------------------------|

E--3------------------0-55--------------------------------|

G---------------------------------------------------------|

D-----5-2-------------------------------------------------|

A----------5------2----------5----------------------------|

E--3------------------0-55--------------------------------|

G---------------------------------------------------------|

D-----5-2-------------------------------------------------|

A----------5------2---------------------------------------|

E--3------------------0-55--------------------------------|

G-------------------------------------------------------|

D-----5-2-----------------------------------------------|

A----------5------2-------------------------------------|

E--3------------------3---------------------------------|

Verse

G-----------------------------------------------------------------------------|

D----------------------------------------------------------5------------------|

A-----------------2-5-------2--5--------------3-7----3------7--5--------------|

E--3-3-3-3-3-3-------3-3-3-------5-5-5-5-5-5-------5--5-----------------------|

Chorus

G---------------------------------------------------------------------|

D--------------------------------------------------5------------------|

A-----------9-12--------7-10--------------5-9--3----7-5---------------|

E--10-10-10-------8-8-8------7-7-7-7-7-7-----5--5---------------------|

Bridge two times

G--------------------------------------------------------------|

D--------------------------------------------------------------|

A---------5-9-----------------10-9-----------------------------|

E--7-7-7------7-7-7-7-7-7--------------------------------------|

G--------------------------------------------------------------|

D---------5-9-----------------10-9-----------------------------|

A--7-7-7-----7-7-7-7-7-7---------------------------------------|

E--------------------------------------------------------------|

Second Bridge Interlude

G-----------------------------------------------------|

D--10-9-7---------------------------------------------|

A-----------------------------------------------------|

E-----------------------------------------------------|Added by tabs-database.com and our distinguished partners

Get this song at:  amazon.com sheetmusicplus.com

Share your thoughts

0 Comments found