Red Hot Chili Peppers

Red Hot Chili Peppers - Californication guitar tab

Tabs for "Californication"

from the album Californication

by Red hot chili peppers

Tab by Ulrik Hollman

Hollman4@hotmail.com

verse (line 1 & 2) and intro play 4 times

psychic ....

e-----------------------------------------

B--------------0---1----------------------

G-----------------------------------------

D---------2------------2-----0h2p0--------

A-----0------------------------------3----

E-----------------------------------------

e-----------------------------------------

B-----------------------------------------

G--------------------0-----2--------------

D-------------------------------3---0-----

A-------------3---------------------------

E--------1--------------------------------

e--------------0--------------------------

B-----------------1----------3------------

G-------------------------------4---------

D----------2-------------0----------------

A------3-------------2--------------------

E-----------------------------------------

e---------------------------1-------------

B----------1-------------------1----------

G-------------2---------------------------

D------2----------------3-----------------

A--0--------------------------------------

E-------------------1---------------------

Am Am Am Am

Pay your.....

F F F

Am Am Am Am

F F F

Chorus:

Am Am F

Am Am Am F

C C G F Am

C C G F Am

Get this song at:  amazon.com sheetmusicplus.com

Share your thoughts

0 Comments found