Red Hot Chili Peppers

Red Hot Chili Peppers - Tearjecker guitar tab

red hot chili peppers

tearjecker

tabbed by el parko 373

Starts off with a Dsus4

e--0--------0-----------------------------

B--3------3---3---------------------------

G--2----2-------2-------------------------

D--0--0-----------0-----------------------

A-----------------------------------------

E-----------------------------------------

e-----------------------------------------------------------------

B---7p5h7---5p3(h5)--3p1------------------------------------------

G-------------------------4b5r4---4b-(2/7)-----------------------

D-----------------------------------------------------------------

A-----------------------------------------------------------------

E-----------------------------------------------------------------

back sound: D F#m G A D F#m Bm 2x}

[D]My mouth fell [F#m]open

[G]Hoping that the [A]truth would not be [D]true

Re[F#m]fuse the [Bm]news

I'm feeling sick now

What the *** am I supposed to do

Just loose and loose

{C: A Bb A Bb A}

First time I saw you

You were sitting backstage in a dress

A perfect mess

You never knew this

But I wanted badly for you to

Requite my love

{soc}

[C]Left on the [Em]floor

[C]Leaving her [Em]body

[C]When highs are the [Em]lows

And lows are the [F#m]way

[Em]So hard to [F#m]stay

[A]Guess now you [Bb]know

[A]I love you [Bb]so [A]

{eoc}

I liked your whiskers

And I liked the dimple in your chin

Your pale blue eyes

You painted pictures

Cause the one who hurts can give so much

You gave me such

{C:Repeat chorus}

{C: D Bb C D Bb G D Bb C D}

Ha en glad dag! :-)

Steinar, IT-tjenesten.

Date: Tue, 23 May 1995 01:34:49 +0100 (MET)

From: brig00@gest.unipd.it

Subject: TAB:tearjerker_solo By: red_hot_chili_peppers

TAB: Tearjerker solo

MUSIC BY: Red hot chili peppers

TABBED BY: Andrea Brigo (brig00@palladio.gest.unipd.it)

E|---------------------------------------------------------------------------

B|---------------------------------------------------------------------------

G|-9-9-9/11-11-11-11/12-12-12-12/11-11-11-11/12-12-14-14-14-14/12-12-12-12/11

D|---------------------------------------------------------------------------

A|---------------------------------------------------------------------------

E|---------------------------------------------------------------------------

E|---------------------------------------------------------------------------

B|-11-11-11/9-9-9/7-7-6-6/4-6-4-4-4-6-6-9h11p9-7---7-------------------------

G|-----------------------------------------------9---7-5-5-7-5-4-------------

D|---------------------------------------------------------------5-(7)-(5)---

A|---------------------------------------------------------------------------

E|---------------------------------------------------------------------------

E|------------------------10-------------------------------------------------

B|-10-8----8---------8-10----------------------------------------------------

G|------10---10-7-10---------------------------------------------------------

D|---------------------------------------------------------------------------

A|---------------------------------------------------------------------------

E|---------------------------------------------------------------------------

Get this song at:  amazon.com sheetmusicplus.com

Share your thoughts

0 Comments found