Red Hot Chili Peppers

Red Hot Chili Peppers - Suck My Kiss bass tab

Suck My Kiss by The Red Hot Chili PePPeRs

intro

g----------------------------

d----------------------------this gets repeated 3 times

a---------1-----------------then play this

e-1--3---------1--3------

g---------------------------------------------7h9--9---

d----------------3-3-3-3--5h7--7--7----------------

a-3\5---5--5-------------------------------------------

e---------------------------------------------------------

once keidis gets singing play the first line 2 times the play this

g--------------------------------------------------------------

d---3---3------------------3----3----------------4-----4--

a--------------------3---------------------4-----------------

e-------------------------------------------------------------

chorus

g--------------------------------------------------

d------------5-------5----------------------------

a----------------5--------5-----------------------

e-0---0-------------------------0-----5----5----

any questions comments ot u wanna talk peppers write me

PePPeRs 01@aol.com

Get this song at:  amazon.com sheetmusicplus.com

Share your thoughts

0 Comments found