Red Hot Chili Peppers

Red Hot Chili Peppers - Get Up And Jump Live guitar tab

This is a tab for the song "Get Up And Jump" by the Red Hot Chili Peppers. It's a live

They have it on youtube. It's live at the Rock Palast in Germany in 1985. It sounds ok,

I'm not entirely sure about the intro. If you have any suggestions, PM me on UG. Thanks...

-------------------------------------------------------------------------------

GET UP AND JUMP (LIVE) - RED HOT CHILI PEPPERS

-------------------------------------------------------------------------------

Tabbed by: Trevor White

Email: webmaster at tabs-database.com.com

Tuning: Standard

~INTRO~

e|-----------------------19-19-19-19------|

B|---6-6--6-6-6--6-6-----18-18-18-18------|

G|---5-5--5-5-5--5-5-----17-17-17-17------|

D|----------------------------------------|x4

A|----------------------------------------|

E|----------------------------------------|

On the third time, you can hammer/pull off on the 8th fret on the B string if you want, like so...

B--6-6--6-6-6--8p6------------|

G--5-5--5-5-5--5-5------------|

~VERSE~

e|----------------------------------------|

B|----------------------------------------|

G|---------3p0---------3p0----------------|

D|--5-5-3-------5-5-3---------------------|

A|----------------------------------------|

E|----------------------------------------|

Sometimes you can pull of either the 5th or 3rd fret to 0 on the D string if you want

variation. Repeat that throughout the verse.

~CHORUS~

The chorus is kinda weird, I think it's an A chord. But I'm not entirely sure. This is

I do for the song.

e|--------------------------------------|

B|-------5-5-5-5------------------------|

G|-------6-6-6-6------------------------|

D|-------7-7-7-7------------------------|

A|-------7-7-7-7------------------------|

E|--5-5---------------------------------|

"GET UP AND JUMP!"

Repeat as necessary.

e|----------------------------------------|

B|-------5-5------------5-5---------------|

G|-------6-6--7-5-------6-6--7-5----------|

D|-------7-7------------7-7---------------|

A|-------7-7------------7-7---------------|

E|--5-5------------5-5--------------------|

"GET UP AND JUMP"

"Bu bu bo"

Repeat as necessary.

Then it goes to the VERSE.

Then it goes to the OUTRO.

~OUTRO~

e|--------------------------19-19-19-19------|

B|--18-18--18-18-18--18-18--18-18-18-18------|

G|--17-17--17-17-17--17-17--17-17-17-17------|

D|-------------------------------------------|

A|-------------------------------------------| x2

E|-------------------------------------------|

And that's it! If you have any suggestions, leave a comment, PM, or email me! Thanks.

| / slide up

| \\ slide down

| h hammer-on

| p pull-off

| ~ vibrato

| + harmonic

| x Mute note

===============================================================================Added by tabs-database.com and our distinguished partners

Get this song at:  amazon.com sheetmusicplus.com

Share your thoughts

0 Comments found