Red Hot Chili Peppers

Red Hot Chili Peppers - Under The Bridge - Unplugged guitar tab

tabs-database.com[http://www.tabs-database.com.com/]

#----------------------------------PLEASE NOTE---------------------------------#

#This file is the author's own work and represents their interpretation of the #

#song. You may only use this file for private study, scholarship, or research. #

#------------------------------------------------------------------------------##

UNDER THE BRIDGE (UNPLUGGED)

Red Hot Chili Peppers

Words by Anthony Kiedis

Music by John Fruciante

C E D A/E

x 3 2 0 1 0 0 2 2 1 0 0 x x 0 2 3 2 x x 2 2 2 x

Bm/F# F#m/C# G/D Dmaj7

x x 4 4 3 x x 4 4 2 2 x x 5 5 4 3 x x x 0 2 2 2

Em A Bm G

0 2 2 4 5 3 x 0 2 2 2 x x 2 4 4 3 2 3 5 5 4 x x

G(type 2) Gm F Ebmaj7

3 5 5 4 3 3 3 5 5 3 3 3 1 3 3 2 1 1 x x 1 3 3 3

D7 GIII Gm(type 2) F/G

x x 0 2 1 2 x x x 0 3 7 x x x 0 3 6 x x x 0 6 5

Eb/G Gm/Bb

x x x 0 4 3 x x x 3 3 3

Gtr I (E A D G B E)

Moderate

Slow Rock Q=69

4/4

Gtr I

Intro

(C) (E)

||--------------------------|-------------------------|

||o-1-------1-(1)-----------|-0-----------------------|

||------0---------0---------|---------1-(1)-----------|

||----2---2-----------------|-----2---------2-2-0-----|

||o-3---------------2-0-----|---2---2-------------3-0-|

||----------------------3-2-|-0-----------------------|

(C) (D)

|------------------------------|

|-------------1h3p1------------|

|---------0---------0----------|

|-----2-----2---------2s4-4\\---|

|-2/3---3-------------3s5-5\\---|

|------------------------------|

1. 2.

(E) (E)

|--------------------------||---------------------------||

|-0-----------------------o||-0-------------------------||

|---------1-(1)------------||---------1-(1)-----1-------||

|-----2---------2-2-0------||-----2---------2-----2-----||

|---2---2-------------3-0-o||---2---2---------2-----2/5-||

|-0------------------------||-0-------------------------||

Verses 1 and 2

Faster Q=83

D A/E Bm/F# F#mG/D D A/E

||--2--------------------|---------------|-2--2---------------------|

||o-3--x-2-(2)---2h3p2---|-----3--2--3---|-3--3---2-(2)---2h3p2---2-|

||--2--x-2-(2)---------2-|-2h4-4--2--4---|-2--2---2-(2)---------2---|

||--0--x-2-(2)-2---------|-2h4----3--5---|-0-(0)--2-(2)-2-----------|

||o----------------------|--------4------|--------------------------|

||-----------------------|---------------|--------------------------|

Bm/F# G/D D

T T TT T T T T T T T TT T T

|------------------||-2---------------|-(2)---------------||

|-----3--3-(3)----o||-3---------------|-(3)---------------||

|-2h4-4--4-(4)-----||-2---------------|-(2)---------------||

|-2h4----5-(5)-----||-0---------------|-(0)---------------||

|--------5-(5)----o||-----------------|-------------------||

|------------------||----x-x--x-x-x-x-|--x--x-x-x--x-x-x--||

Pre-Chorus

Em D A Em

4x

||---3---2---2----2---|--9--9--9--9--3-(3)-3-3-x-x--||

||o--5---3---3----3---|-10-10-10-10--5-(5)-5-5-x-x-o||

||---4---2---2----2---|--9--9--9--9--4-(4)-4-4-x-x--||

||---2---0---0----0---|--7--7--7--7--2-(2)-2-2-x-x--||

||o--2--(0)-(0)--(0)--|--0--0--0--0--2-(2)-2-2-x-x-o||

||---0----------------|--------------0-(0)-0-0-x-x--||

Verse 3

D A Bm/F# Bm G/D D A

||--2--------------------|--------2------|-2--2---------------------|

||o-3--x-2-(2)---2h3p2---|-----3--3--3---|-3--3---2-(2)---2h3p2---2-|

||--2--x-2-(2)---------2-|-2h4-4--4--4---|-2--2---2-(2)---------2---|

||--0--x-2-(2)-2---------|-2h4----4--5---|-0-(0)--2-(2)-2-----------|

||o------0-(0)-----------|--------2------|--------0-(0)-------------|

||-----------------------|---------------|--------------------------|

Bm/F# G D

T T TT T T T T T T T TT T T

4x

|------------------||-2---------------|-(2)---------------||

|-----3--0-(0)----o||-3---------------|-(3)---------------||

|-2h4-4--0-(0)-----||-2---------------|-(2)---------------||

|-2h4----0-(0)-----||-0---------------|-(0)---------------||

|--------x--------o||-----------------|-------------------||

|--------3-(3)-----||----x-x--x-x-x-x-|--x--x-x-x--x-x-x--||

Pre-Chorus

Em D A Em

4x

||---3---2---2----2---|--9--9--9--9--3-(3)-3-3-x-x--||

||o--5---3---3----3---|-10-10-10-10--5-(5)-5-5-x-x-o||

||---4---2---2----2---|--9--9--9--9--4-(4)-4-4-x-x--||

||---2---0---0----0---|--7--7--7--7--2-(2)-2-2-x-x--||

||o--2--(0)-(0)--(0)--|--0--0--0--0--2-(2)-2-2-x-x-o||

||---0----------------|--------------0-(0)-0-0-x-x--||

Chorus

G Gm F Ebmaj7N.C.

3x

||--3-3--3-(3)---3-----|-1-1--3-(3)--------------||

||o-3-3--3-(3)---3-x-x-|-1-1--3-(3)-------------o||

||--4-4--4-(4)---3-x-x-|-2-2--3-(3)-----3--------||

||--5-5--5-(5)---5-x-x-|-3-3--1-(1)-3/5---5-3-5--||

||o-5-5--5-(5)---5-x-x-|-3-3--------------------o||

||--3-3--3-(3)-3-------|-1-1---------------------||

Ebmaj7 D7 F

|-3-3-3-3-3-3-3-3-|--2---2---2---2--1-1-1-1-1-1-1-1-||

|-3-3-3-3-3-3-3-3-|--1---1---1---1--1-1-1-1-1-1-1-1-||

|-3-3-3-3-3-3-3-3-|--2---2---2---2--2-2-2-2-2-2-2-2-||

|-1-1-1-1-1-1-1-1-|--0---0---0---0--3-3-3-3-3-3-3-3-||

|-----------------|-(0)-(0)-(0)-(0)-3-3-3-3-3-3-3-3-||

|-----------------|-----------------1-1-1-1-1-1-1-1-||

G Gm F Ebmaj7 G

3x

||--3-3--3-(3)---------|-1-1--3-(3)-3-3-3-3-3-3--||-3--------|-(3)----||

||o-0-0--0-(0)---3-x-x-|-1-1--3-(3)-3-3-3-3-3-3-o||-0--------|-(0)----||

||--0-0--0-(0)---3-x-x-|-2-2--3-(3)-3-3-3-3-3-3--||-0--------|-(0)----||

||--0-0--0-(0)---0-x-x-|-3-3--1-(1)-1-1-1-1-1-1--||-0--------|-(0)----||

||o-2-2--2-(2)---x-x-x-|-3-3--------------------o||-2--------|-(2)----||

||--3-3--3-(3)-3-3-----|-1-1---------------------||-3--------|-(3)----||

Outro

G Gm

|-7-7-7-7-(7)-7-7-x-x-|-6-6-x-x-6-6-6-6-6-6-|

|-3-3-3-3-(3)-3-3-x-x-|-3-3-x-x-3-3-3-3-3-3-|

|-0-0-0-0-(0)-0-0-x-x-|-0-0-x-x-0-0-0-0-0-0-|

|---------------------|---------------------|

|---------------------|---------------------|

|---------------------|---------------------|

F/G Eb/G

|-5-5-x-5-5-5-5-5-5-5-5-|-3-3-3-3-3-3-3-3-3-----------|

|-6-6-x-6-6-6-6-6-6-6-6-|-4-4-4-4-4-4-4-4-4-2h3p2---2-|

|-0-0-x-0-0-0-0-0-0-0-0-|-0-0-0-0-0-0-0-0-0-------2---|

|-----------------------|-----------------------------|

|-----------------------|-----------------------------|

|-----------------------|-----------------------------|

G Gm/Bb

|-3-3--3-(3)-3-3-3-3-3-|-3-3-3-3-(3)-3-3-3-3--|

|-0-0--0-(0)-0-0-0-0-0-|-3-3-3-3-(3)-3-3-3-3--|

|-0-0--0-(0)-0-0-0-0-0-|-3-3-3-3-(3)-3-3-3-3--|

|----------------------|----------------------|

|----------------------|----------------------|

|----------------------|----------------------|

Gm F/G G

|-6-6--6-(6)-6------------|-5-5--5-(5)-(5)---|-3----*|

|-3-3--3-(3)-3--2h3p2---2-|-6-6--6-(6)--8----|-0----*|

|-0-0--0-(0)-0--0-----2---|-0-0--0-(0)-(0)---|-0----*|

|-------------------------|------------------|------*|

|-------------------------|------------------|------*|

|-------------------------|------------------|------*|

Tablature Legend

----------------

h - hammer-on

p - pull-off

b - bend

/\\ - slide into or out of (from/to "nowhere")

~ - vibrato

T - tap side of accoustic with fingers

x - palm muting

Misc Legend

-----------

| - bar

|| - double bar

Added by tabs-database.com and our distinguished partners

Get this song at:  amazon.com sheetmusicplus.com

Share your thoughts

0 Comments found