Red Hot Chili Peppers

Red Hot Chili Peppers - Shes Only 18 guitar tab

Red Hot Chili Peppers

She's Only 18

Solo Tab

Guitar

Tuning EADGBE

2:19

E|-------------------------------------------------------------|

B|-------------------------------------------------------------|

G|-------------------------------------------------------------|

D|---------1-3/5--1--3-1h3v-------1-3/5--1-3-1-----------------|

A|----1/3---------------------1-3------------------------------|

E|-------------------------------------------------------------|

2:25

E|-------------------------------------------------------------|

B|--------------------------4b-----------6b7-4h6v--------------|

G|------3-5-3-5v---------3-5--5v-----3-5-----------------------|

D|--3/5--------------3/5---------------------------------------|

A|--fast-------------------------------------------------------|

E|-------------------------------------------------------------|

E|-------6v----6-8---------------------------------------------|

B|---6/8-----8------8p6(p)4---6-6p4---4-6/8-6v--6-4------------|

G|----------------------------------5--------------------------|

D|-------------------------------------------------------------|

A|-------------------------------------------------------------|

E|-------------------------------------------------------------|

2:33

E|-------------------------------------------------------------|

B|--6-6-6-6p4--6-6p4--6-6p4--6-6p4--6-6p4----------------------|

G|-------------------------------------------------------------|

D|-------------------------------------------------------------|

A|-------------------------------------------------------------|

E|-------------------------------------------------------------|

E|---------6-10b11-8v------------x-----------13bbbbb15---------|

B|--6-4-6/8-8--------------------------------------------------|

G|-------------------------------------------------------------|

D|-------------------------------------------------------------|

A|-------------------------------------------------------------|

E|-------------------------------------------------------------|

2:40

E|---13b15-13p11-13v----13/15--18vvvvp15-----------------------|

B|--------------------------------------18p16--18-18-18p16-----|

G|---------------------------------------------------------17--|

D|-------------------------------------------------------------|

A|-------------------------------------------------------------|

E|-------------------------------------------------------------|

E|----------19-------------------------------------------------|

B|-16-18b19-------19r18p16-18-18-18-16----17\\------------------|

G|-------------------------------------17----------------------|

D|-------------------------------------------------------------|

A|-------------------------------------------------------------|

E|-------------------------------------------------------------|

I think this is pretty accurate.Added by tabs-database.com and our distinguished partners

Get this song at:  amazon.com sheetmusicplus.com

Share your thoughts

0 Comments found