Red Hot Chili Peppers

Red Hot Chili Peppers - Sir Psycho Sexy guitar tab

Artist: Red Hot Chili Peppers

Title: Sir Psycho Sexy

Album: Blood Sugar Sex Magik

Sir Psycho Sexy

Intro: With Wah-Wah

E|--x\---------------------------|------------x--x--x------------------|

B|--x\----------x----------------|------------x--x--x------------------|

G|----------x\--x----------------|-----x--x---x--x--x------------------|

D|----------x\------x--5--5--5b--|--x------------------x--x--0--2~~~~--|

A|------x\-----------------------|-------------------------------------|

E|------x\-----------------------|-------------------------------------|

E|--x-----------x--x----------------------|-----------x--x------------------|

B|--x-----------x--x----------------------|-----------x--x--x---------------|

G|--------------x--x----------------------|--x--------x--x------------------|

D|-----x--x--x--------x--x--x--x--0-tr-2--|-----x--x-----------x--5--5--5b--|

A|----------------------------------------|---------------------------------|

E|----------------------------------------|---------------------------------|

E|--------------x--x------------------|----------------------------|

B|--------------x--x------------------|----------------------------|

G|--------------x--x------------------|-----x--x-------------------|

D|--x\--x-----------------------------|--x--------x----x-5--5--5b--|

A|---------------------4--5---7-~~~~--|----------------------------|

E|------------------------------------|----------------------------|

E|------------------------------------------------------|

B|------------------------------------------------------|

G|------------------------------------------------------|

D|--x--x---x--x------x--x-------------------------------|

A|-------------------------5--5--5--5-------------------|

E|------------------------------------------------------|

Fig.1

E|--7--7----7--7-----x--7----7-----7--7----7----7--7----x--9-\-7--------|

B|--8--7----7--7-----x--8----8-----8--7----8----8--7----x--9-\-7--------|

G|--7--7----7--7-----x--7----7-----7--7----7----7--7----x--9-\-7--------|

D|--9--9----9--9-----x--9----9-----9--9----9----9--9--------------------|

A|--7--7----7--7-----x--7----7-----7--7----7----7--7--------------------|

E|----------------------------------------------------------------------|

x2_

E|------------------------------------------------------|

B|------------------------------------------------------|

G|------------------------------------------------------|

D|------------------------------------------------------|

A|--5--5--5--5------------------------------------------|

E|------------------------------------------------------|

Chorus:

E|---------------------------------------------------------|

B|--11-/--12-----------------------------------------------|

G|--9--/--10----10----12~~----x--x--3--3b------------------|

D|---------------------------------------------5--4---3-b--|

A|---------------------------------------------------------|

E|---------------------------------------------------------| a few times

with slight variations

Interlude:

E|------------------------|--------------------------|

B|--5----7----8-----------|--8--8--7--7--5-----------|

G|--5----7----9--x--------|--9--9--7--7--5--x--5-----|

D|------------------5--7--|-----------------------7--|

A|------------------------|--------------------------|

E|------------------------|--------------------------|

E|------------------------|--------------------------|

B|--5----7----8-----------|--8--8--7--7--5-----------|

G|--5----7----9--x--------|--9--9--7--7--5--7b--5~~--|

D|------------------5--7--|--------------------------|

A|------------------------|--------------------------|

E|------------------------|--------------------------|

E|------------------------|---------------x--5----6------|

B|--5----7----8-----------|--8--8--7--7---x--5----6------|

G|--5----7----9--x--------|--9--9--7--7---x--5----6------|

D|------------------5--7--|------------------------------|

A|------------------------|------------------------------|

E|------------------------|---------------------------0--|

Outro: Only Chords

Em Eb Bb D Ab Eb Cm Ab G

E|------------6---------4--------------4----3--------------|

B|--8----8----6----7----4----8----4----4----3--------------|

G|--9----8----7----7----5----8----5----5----4--------------|

D|--9----8----8----7----6----8----5----6----5--------------|

A|--7----6----8----5----6----6----3----6----5--------------|

E|------------6---------4--------------4----3--------------|

Get this song at:  amazon.com sheetmusicplus.com

Share your thoughts

0 Comments found