Red Hot Chili Peppers

Red Hot Chili Peppers - If You Have To Ask (verse) bass tab

Like_Ya_Uk@hotmail.com to contact me =)

Only Worked out the verse part.. cba to do rest

cause i dont play bass much now

-------------------------------

-------------------------------

---5p3p0-5p3p0---5p3p0-0-------

-0-------------3---------/12--

-------------------------------

-------------------------------

---5p3p0-5p3p0---5p3p0-2-3-----

-0-------------3-----------5---

-------------------------------

-------------------------------

---5p3p0-5p3p0---5p3p0-0-------

-0-------------3---------/12--

-------------------------------

-------------------------------

---5p3p0-5p3p0---5p3p0-2-3-4-5-

-0-------------3---------------

Taken from The BassMasta -- http://www.tabs-database.com

Get this song at:  amazon.com sheetmusicplus.com

Share your thoughts

0 Comments found