Red Hot Chili Peppers

Red Hot Chili Peppers - Tell Me Baby guitar tab

Artist : Red Hot Chili Peppers

Song : Tell me baby

Album : Stadium Arcadium

Tab by: Beberasmus webmaster at tabs-database.com.com

Intro:

E|-------------------------|

B|---1----1--------0---1---|

G|-2-----0-----0---------2-|

D|-3-----2-----------------|

A|-------------------------|

E|-------------------------|

E|-------------------1-|

B|---1----1--------0-3-|

G|-2-----0-----0-----2-|

D|-3-----2-----------0-|

A|-------------------0-|

E|-------------------0-|

E|-------------------------|

B|---1----1--------0---1---|

G|-2-----0-----0---------2-|

D|-3-----2-----------------|

A|-------------------------|

E|-------------------------|

E|-----------3-|

B|---1----1--3-|

G|-2-----0---4-|

D|-3-----2---3-|

A|-----------5-|

E|-----------3-|

Then:

E|----------------------------------------|

B|----------------------------------------|

G|-x-12--14-----x-12-x-14-x-------x-x-x-x-|

D|-x---------14-x----x----x-14-14-x-x-x-x-|x3

A|----------------------------------------|

E|----------------------------------------|

E|----------------------------------|

B|--------------13-12---------------|

G|-x-12--14-----------x-14-x--12-14-|

D|-x---------14-------x----x--------|

A|----------------------------------|

E|----------------------------------|

Verse:x2

E|----------------------------------------|

B|----------------------------------------|

G|-x-12--14-----x-12-x-14-x-------x-x-x-x-|

D|-x---------14-x----x----x-14-14-x-x-x-x-|x3

A|----------------------------------------|

E|----------------------------------------|

E|----------------------------------|

B|--------------13-12---------------|

G|-x-12--14-----------x-14-x--12-14-|

D|-x---------14-------x----x--------|

A|----------------------------------|

E|----------------------------------|

Then:

E|-12-x-x-12-x-x-12-x-x-12-12---12-12--x-x--12-x-12-x-x-|

B|-12-x-x-12-x-x-12-x-x-12-12---12-12--x-x--12-x-12-x-x-|

G|----x-x----x-x----x-x----------------x-x-----x----x-x-|

D|------------------------------------------------------|x3

A|------------------------------------------------------|

E|------------------------------------------------------|

E|-15-15-15-15-15-15-15-15-15-15-15-15-|

B|-15-15-15-15-15-15-15-15-15-15-15-15-|

G|-16-16-16-16-16-16-16-16-16-16-16-16-|

D|-------------------------------------|

A|-------------------------------------|

E|-------------------------------------|

E|----------------------------------------|

B|----------------------------------------|

G|-x-12--14-----x-12-x-14-x-------x-x-x-x-|

D|-x---------14-x----x----x-14-14-x-x-x-x-|x3

A|----------------------------------------|

E|----------------------------------------|

E|------------------|

B|------------------|

G|-x-12--14--12h14~-|

D|-x----------------|

A|------------------|

E|------------------|

Chorus:

E|--------------------------------------------13--------|

B|----13----13------12-13--------13----13---12-----15---|

G|-14----12------12-------14---14----12---12-----14--14-|

D|------------------------------------------------------|

A|------------------------------------------------------|

E|------------------------------------------------------|

E|---------------------------------------------13----13-|

B|------13----13-----12-13--------13----13-----12----12-|

G|---14----12-----12-------14--14----12-----12-12-12-12-|

D|------------------------------------------------------|

A|------------------------------------------------------|

E|------------------------------------------------------|

E|----------------------------------------13------------------------------------------------|

B|---13--13----12-13--------13----13----12------15---------13---13-----12-13-------13----13-|

G|-14--12---12-------14--14----12-----12-----14----14---14----12----12-------14--14---12----|

D|------------------------------------------------------------------------------------------|

A|------------------------------------------------------------------------------------------|

E|------------------------------------------------------------------------------------------|

E|-13--13--13--13--13-|

B|-12--12--12--12--12-|

G|--------------------|

D|--------------------|

A|--------------------|

E|--------------------|

Then:

E|---------------------22^~~--|

B|-------------10~~~----------|

G|-------9~~------------------|

D|----------------------------|

A|-0~~------------------------|

E|----------------------------|

Verse 2:x2

E|----------------------------------------|

B|----------------------------------------|

G|-x-12--14-----x-12-x-14-x-------x-x-x-x-|

D|-x---------14-x----x----x-14-14-x-x-x-x-|x3

A|----------------------------------------|

E|----------------------------------------|

E|----------------------------------|

B|--------------13-12---------------|

G|-x-12--14-----------x-14-x--12-14-|

D|-x---------14-------x----x--------|

A|----------------------------------|

E|----------------------------------|

Then:

E|-12-x-x-12-x-x-12-x-x-12-12---12-12--x-x--12-x-12-x-x-|

B|-12-x-x-12-x-x-12-x-x-12-12---12-12--x-x--12-x-12-x-x-|

G|----x-x----x-x----x-x----------------x-x-----x----x-x-|

D|------------------------------------------------------|x3

A|------------------------------------------------------|

E|------------------------------------------------------|

E|-15-15-15-15-15-15-15-15-15-15-15-15-|

B|-15-15-15-15-15-15-15-15-15-15-15-15-|

G|-16-16-16-16-16-16-16-16-16-16-16-16-|

D|-------------------------------------|

A|-------------------------------------|

E|-------------------------------------|

E|----------------------------------------|

B|----------------------------------------|

G|-x-12--14-----x-12-x-14-x-------x-x-x-x-|

D|-x---------14-x----x----x-14-14-x-x-x-x-|x3

A|----------------------------------------|

E|----------------------------------------|

E|------------------|

B|------------------|

G|-x-12--14--12h14~-|

D|-x----------------|

A|------------------|

E|------------------|

Chorus:

E|--------------------------------------------13--------|

B|----13----13------12-13--------13----13---12-----15---|

G|-14----12------12-------14---14----12---12-----14--14-|

D|------------------------------------------------------|

A|------------------------------------------------------|

E|------------------------------------------------------|

E|---------------------------------------------13----13-|

B|------13----13-----12-13--------13----13-----12----12-|

G|---14----12-----12-------14--14----12-----12-12-12-12-|

D|------------------------------------------------------|

A|------------------------------------------------------|

E|------------------------------------------------------|

E|----------------------------------------13------------------------------------------------|

B|---13--13----12-13--------13----13----12------15---------13---13-----12-13-------13----13-|

G|-14--12---12-------14--14----12-----12-----14----14---14----12----12-------14--14---12----|

D|------------------------------------------------------------------------------------------|

A|------------------------------------------------------------------------------------------|

E|------------------------------------------------------------------------------------------|

E|-13--13--13--13--13-|

B|-12--12--12--12--12-|

G|--------------------|

D|--------------------|

A|--------------------|

E|--------------------|

Solo:

E|------------------------------------------------------------------------------------------------|

B|------------------------------------------------------------------------------------------------|

G|------------------------------------------------------------------------------------------------|

D|-14~--10h12p10---------10-12-----10-12------10-12-----10-12--------10------10-------12-------10-|

A|----------------12--12--------12---------12--------12--------10-12----10-12---10-12-----12-10---|

E|------------------------------------------------------------------------------------------------|

E|---------------------------------15-16-17-|

B|--------------------------13-15-----------|

G|--------------12-x-12-14------------------|

D|----12----10------------------------------|

A|-12----12---------------------------------|

E|------------------------------------------|

Chorus:

E|--------------------------------------------13--------|

B|----13----13------12-13--------13----13---12-----15---|

G|-14----12------12-------14---14----12---12-----14--14-|

D|------------------------------------------------------|

A|------------------------------------------------------|

E|------------------------------------------------------|

E|---------------------------------------------13----13-|

B|------13----13-----12-13--------13----13-----12----12-|

G|---14----12-----12-------14--14----12-----12-12-12-12-|

D|------------------------------------------------------|

A|------------------------------------------------------|

E|------------------------------------------------------|

E|----------------------------------------13------------------------------------------------|

B|---13--13----12-13--------13----13----12------15---------13---13-----12-13-------13----13-|

G|-14--12---12-------14--14----12-----12-----14----14---14----12----12-------14--14---12----|

D|------------------------------------------------------------------------------------------|

A|------------------------------------------------------------------------------------------|

E|------------------------------------------------------------------------------------------|

E|-13--13--13--13--13-|

B|-12--12--12--12--12-|

G|--------------------|

D|--------------------|

A|--------------------|

E|--------------------|

Very easy!

Plz reate!Added by tabs-database.com and our distinguished partners

Get this song at:  amazon.com sheetmusicplus.com

Share your thoughts

0 Comments found