Red Hot Chili Peppers

Red Hot Chili Peppers - On Mercury guitar tab

Red Hot Chili Peppers - On Mercury

Tabbed by Thomas

Standard Tuning

The other tabs on here were all a little off to me so i decided that I would fix it.

Verse

Here's how you make it sound kind of like it has the accordion in the verse. If you

want to just play the normal guitar part, play the full chord ( including the ghost

notes in parentheses), rather than the bass note followed by the high shots.

Bm G A F# G F#

e|-(7)7-7---7-7--3-3-3--3-3-3----5-5---5-5--2-2-2--3-3-2---------------------------|

B|-(7)7-7---7-7--3-3-3--3-3-3----5-5---5-5--2-2-2--3-3-2---------------------------|

G|-(7)7-7---7-7--4-4-4--4-4-4----6-6---6-6--3-3-3--4-4-3---------------------------|

D|-(5)----------(5)-------------(7)--------(4)----(5)-(4)--------------------------|

A|-(5)----------(5)-------------(7)--------(4)----(5)-(4)--------------------------|

E|--7-----7-----(3)--------------5---5-----(2)----(3)-(2)--------------------------|

Pre-Chorus

G F# F#7

e|--3-3-3-3-3-3-3-3-2-2-2-2-2-2-2-2------------------------------------------------|

B|--3-3-3-3-3-3-3-3-2-2-2-2-2-2-2-2------------------------------------------------|

G|--4-4-4-4-4-4-4-4-3-3-3-3-3-3-3-3------------------------------------------------|

D|--5-5-5-5-5-5-5-5-4-4-4-4-4-4-2-2------------------------------------------------|

A|--5-5-5-5-5-5-5-5-4-4-4-4-4-4-4-4------------------------------------------------|

E|--3-3-3-3-3-3-3-3-2-2-2-2-2-2-2-2------------------------------------------------|

Chorus

Ending 1 Ending 2

Bm D A Em Bm D A F# A F#

e|--7-7-7-7---------5-5-5-5-7-7-7-7-7-7-7-7-7-7-7-7-|-5-5-5-5-2-2-2-2-|-5-----2----|

B|--7-7-7-7-7-7-7-7-5-5-5-5-8-8-8-8-7-7-7-7-7-7-7-7-|-5-5-5-5-2-2-2-2-|-5-----2----|

G|--7-7-7-7-7-7-7-7-6-6-6-6-9-9-9-9-7-7-7-7-7-7-7-7-|-6-6-6-6-3-3-3-3-|-6-----3----|

D|--5-5-5-5-7-7-7-7-7-7-7-7-9-9-9-9-5-5-5-5-7-7-7-7-|-7-7-7-7-4-4-4-4-|-7-----4----|

A|--5-5-5-5-5-5-5-5-7-7-7-7-7-7-7-7-5-5-5-5-5-5-5-5-|-7-7-7-7-4-4-4-4-|-7-----4----|

E|--7-7-7-7---------5-5-5-5---------7-7-7-7---------|-5-5-5-5-2-2-2-2-|-5-----2----|

Get this song at:  amazon.com sheetmusicplus.com

Share your thoughts

0 Comments found