Red Hot Chili Peppers

Red Hot Chili Peppers - Road Trippin Tab Nd Lyrics guitar tab

song: Road Trippin

artist: Red Hot Chilli Peppers

tab: This song it is not very important that in the verses, you

use the

riff one and two, you can use only the one and it is the same.

Intro and verses:

Riff 1.

Em C B

e:-----3-----3----3---3----------------|

B:--------0-----0---0--0--5----4---4---|

G:---------------------------0---0--0--|

D:---2-------2----2--------------------|

A:----------------------3-----2--------|

E:-------------------------------------|

Riff 2.

Em C B

e:-----3-----3---5-3----------------|

B:--------0-----0---0--5----4---4---|

G:------------------------0---0--0--|

D:---2----2-------------------------|

A:--------------------3-----2-------|

E:----------------------------------|

Riff 3.

Am G/B C Dº(fast)

e:----0-------3-------3-------7----7-----|

B:-----1--------3-------5-------8----8---|

G:-------2--------0-------5-------7------|

D:----------------------------0----------|

A:--0-------2-------3----3-----2---------|

E:---------------------------------------|

Riff.4

Em A C D

e:---------------------------------|

B:--8-----8--5---5--5--5--7--7-----|

G:----9--------5-----5-----7-------|

D:------9-------5-----5-----7------|

A:--7--------0------3-----5--------|

E:---------------------------------|

Riff.5

Em A C Dº

e:------------------------5-----5--|

B:--8-----8--5---5--5--5----4------|

G:----9--------5-----5--------5----|

D:------9-------5-----5---4--------|

A:--7--------0------3--------------|

E:---------------------------------|

Riff.6

Em A C Dº Fº Cº Eº Dº Dbº

E:------------------------5---5--5--\----14--11--8--5--2---|

B:--8-----8--5---5--5--5----4--4--4--\---13--10--7--4--1---|

G:----9--------5-----5---(5)-(5)(5)---\--------------------|

D:------9-------5-----5---4---4--4--4--\-13--10--7--4--1--1|

A:--7--------0------3--------------------------------------|

E:---------------------------------------------------------|

Intro Riff.1

VERSE 1

<Riff1>

Road trippin' with my two favorite allies

<Riff2>

Fully loaded we got snacks and supplies

<Riff1>

It's time to leave this town

<Riff2>

It's time to steal away

<Riff1>

Let's go get lost

<Riff2>

Anywhere in the U.S.A.

<Riff1>

Let's go get lost

Let's go get lost

Chorus:

Riff 1

Blue you sit so pretty

West of the one

Sparkles light with yellow icing

Just a mirror for the sun

Just a mirror for the sun

<Riff3>

Just a mirror for the sun

<Riff3>

These Smiling eyes are just a mirror for

<Verse2>

So much as come before those battles lost and won

This life is shining more forever in the sun

Now let us check our heads

And let us check the surf

Staying high and dry's

More trouble than it's worth

In the sun

Just a mirror for the sun

Just a mirror for the sun

<Riff3>

Just a mirror for the sun

<Riff3> <Riff4,Riff5,Riff6>

These Smiling eyes are just a mirror for

VERSE 3

In Big Sur we take some time to linger on

We three hunky dory's got our snakefinger on

Now let us drink the stars

It's time to steal away

Let's go get lost

Right here in the U.S.A

CHORUS

These smiling eyes are just a mirror for

These smiling eyes are just a mirror for

Your smiling eyes are just a mirror for <Riff1>

Get this song at:  amazon.com sheetmusicplus.com

Share your thoughts

0 Comments found