Red Hot Chili Peppers

Red Hot Chili Peppers - Hyde Park Solo guitar tab

Hyde park solo- rhcp

This is the solo that was played at hyde park between the Zephyr Song and

Californication. here's a tab for it, hopefully its right, it should be though!

E||--5----5----5---------------|--5----5----5--------------|

B||----5----5----5-6----8-6----|----5----5-----6---6--6----|

G||-------------------------5--|---------------5--------5--|

D||----------------------------|---------------------------|

A||----------------------------|---------------------------|

E||----------------------------|---------------------------|

-------------------------|-------------------------|

--5---5---5--6---6--6----|--5---5---5--6-----6-----|

----------------------5--|---------------7---------|

-------------------------|-----------------7-------|

-------------------------|-------------------------|

-------------------------|-------------------------|

--10h12-12-12--10--8-10--8----------------|

---------------------------10--10--10-10--|

------------------------------------------|

------------------------------------------|

------------------------------------------|

------------------------------------------|

--12--12-12--10--8--10--8--8--8----------|

----------------------------------12--10-|

-----------------------------------------|

-----------------------------------------|

-----------------------------------------|

-----------------------------------------|

--10---------------------------------|

------12---10-8h10-10--10-10-10-8----|

-----------------------------------10|

-------------------------------------|

-------------------------------------|

-------------------------------------|

-------------------------------------------------12-|

-----------8h10h8---8h10h8-------------10--13-10----|

--9--9-7-9--------9--------9-9-10-10-10-------------|

----------------------------------------------------|

----------------------------------------------------|

----------------------------------------------------|

--------------15-12r--12-13-12h13h12----12-----|

---15-13--15b------------------------13----15--|

-----------------------------------------------|

-----------------------------------------------|

-----------------------------------------------|

-----------------------------------------------|

--------------------------------------------------12-----|

---15-13-15-13h15h13-12-13-12-13-12----------------------|

------------------------------------14--14-12-14------14r|

---------------------------------------------------------|

---------------------------------------------------------|

---------------------------------------------------------|

-------------------------------------------------------|

-------------------------------------------------------|

---14--12-14-14-14-14-14-12----------------------------|

-----------------------------15--14-15-15-15-14-12--10h|

-------------------------------------------------------|

-------------------------------------------------------|

---------------------------------------------------------------------|

---------------------------------------------------------------------|

---------------------------------------------------------------------|

--12--10-10-10-12h14-14-14-12-10--10--10--10-10-10h12-12-12-10----12h|

---------------------------------------------------------------12----|

---------------------------------------------------------------------|

-----------------------------------------------------------------|

-----------------------------------------------------------------|

-----------------------------------------------------------------|

--14--14-14-14-14--14-14-12-10-10--10-10-10-10h12-12-12-10----12h|

-----------------------------------------------------------12----|

-----------------------------------------------------------------|

----------------------------------------------------------------|

-------------------------------------------------13----13-15h17-|

------------------12----12-12h14-14--14-14-14-14----14----------|

--14--14-14-14-14----14-----------------------------------------|

----------------------------------------------------------------|

----------------------------------------------------------------|

------------------15----15-15h17-17--17-17-17-17-17h15----|

--17--17-17-17-17----17--------------------------------18-|

----------------------------------------------------------|

----------------------------------------------------------|

----------------------------------------------------------|

----------------------------------------------------------|

----------------------------------------------------------|

--18-17-17-17-17--17h18h17-15-----------------15h17h15----|

------------------------------17--17-17-17-17----------17-|

----------------------------------------------------------|

----------------------------------------------------------|

----------------------------------------------------------|

--------------------------------------------------|

---------------15h17h15---------------15h17h15----|

--14--14-14-14----------17---------------------17-|

---------------------------15--15--15-------------|

--------------------------------------------------|

--------------------------------------------------|

--------------------------------------------------------|

-------------15h17h15-----------------------------------|

--14--14--14----------17-----17----17----17----16-16-14-|

-------------------------15-----15----15----15----------|

--------------------------------------------------------|

--------------------------------------------------------|

--------------------12----12-12---------13--------13-13-----|

--------13----13--------------------------------------------|

--14-14----14----14----14-------14--14------14-14-------14--|

------------------------------------------------------------|

------------------------------------------------------------|

------------------------------------------------------------|

--------12-------12-------12--------------13-------15-------15-15-----|

-----------13-------13-------13--------------13-------13--------------|

--14-14-------14-------14-------14--14-14-------14-------14-------14--|

----------------------------------------------------------------------|

----------------------------------------------------------------------|

----------------------------------------------------------------------|

--17-17-17-17-17-17-17-17-------------------------------------------|

--17-17-17-17-17-17-17-17-17-17-17-17-17-17-17-17-17-17-17-17-17-17-|

--------------------------------------------------------------------|

--------------------------------------------------------------------|

--------------------------------------------------------------------|

--------------------------------------------------------------------|

--------------------------------------------------------------------|

--17-17-17-17-17-17-17-17-17-17-17-17-17-17-17-17-17-17-17-17-17-17-|

--------------------------------------------------------------------|

--------------------------------------------------------------------|

--------------------------------------------------------------------|

--------------------------------------------------------------------|

-----------------------------------------------------------------------------|

--------17-------15-------------------------------------17-------15----------|

--------------------------17-------16-------14----------------------------17-|

--14-14----14-14----14-14----14-14----14-14----14-14-14----14-14----14-14----|

-----------------------------------------------------------------------------|

-----------------------------------------------------------------------------|

-----------------------------------------------------------------------------|

--------17-------15----------------------------------------------15----------|

--------------------------17-------16-------14----------16----------------17-|

14-14----14-14----14-14----14-14----14-14----14-14-14----14-14----14-14------|

-----------------------------------------------------------------------------|

-----------------------------------------------------------------------------|

-----15h17-17-17-17-17-17-17-17-17-17-17-17-17-15h17-17-17-17-17-17-17-17-17-|

-----------------------------------------------------------------------------|

-----------------------------------------------------------------------------|

14-14------------------------------------------------------------------------|

-----------------------------------------------------------------------------|

-----------------------------------------------------------------------------|

-17-15h17-17-17-17-17-17-17-17-17-17-17-17-17-15h17-17-17-17-17-17-17-19-19-|

----------------------------------------------------------------------------|

----------------------------------------------------------------------------|

----------------------------------------------------------------------------|

----------------------------------------------------------------------------|

----------------------------------------------------------------------------|

---17-17-17-17-17-17-17-17-17-15-15-15-15-15-15-15-15-15-15-|

------------------------------------------------------------|

------------------------------------------------------------|

------------------------------------------------------------|

------------------------------------------------------------|

------------------------------------------------------------|

-----------------------------------------||

--18-18-17-17-17-17-17h18h17-15----------||

--------------------------------17-------||

-----------------------------------------||

-----------------------------------------||

-----------------------------------------||

enjoy! :)

pps thanks to Or Igelka for the help tabing this peice! :)

Get this song at:  amazon.com sheetmusicplus.com

Share your thoughts

0 Comments found