Red Hot Chili Peppers

Red Hot Chili Peppers - Funky Monks (4 String Adaption) bass tab

Hey this is for people who wanna play funky monks but havent got

a 5 string bass (for example - me)

(p.s this is my first tab so be nice)

verse

G ------------------------------

D ------------------------------

A ------------------------------

E -----3--------3-----3---x-3---

variation

G ------------------------------

D ------------------------------

A -------------------------1----

E -----3------3---3-1--3-1------

pre chorus (just one bar)

G ------------------------------

D --5-5-3-3---------------------

A ----------5-4-3---------------

E ------------------------------

Chorus

G ------------------------------------------------------------------

D ------------------------------------------------------------------

A --------------------------5-5-3-3--------------------------3-3-2-2

E -5-5-3-3-1-1-0-x-1-1110-0---------5-5-3-3-1-1-0-x-1-1110-0--------

G ------------------------------------------------------------------------------

D ------------------------------------------------------------------------------

A --------------------------5-5-3-3--------------------5---3---5/6---5-3-5-3----

E -5-5-3-3-1-1-0-x-1-1110-0---------5-5-3-3-1-1-0-x-1--------5---------------5-3

Solo

G -------1--0-2-----2-1-----1--0-2--------

D ---------------------------------0-3-2-0

A ---0h2--------0-2-----0h2---------------

E ----------------------------------------

G -------1--0-2-----2-1-----1--0-2------------

D ---------------------------------2h3h2-0-3-2

A ---0h2--------0-2-----0h2-------------------

E --------------------------------------------

And i cant figure out the outro sorry. enjoy anyway!

Get this song at:  amazon.com sheetmusicplus.com

Share your thoughts

0 Comments found