Red Hot Chili Peppers

Red Hot Chili Peppers - Over Funk bass tab

"Over Funk" by Red Hot chili Peppers

A Bonus track of Californication

Bass part by Michael Balzary (Flea)

Tabbed by Dan Bogosian (UtBDan)

Visit UtBDan's band's website at:

www.utbrocks.com

VERSE & PRE-CHORUS:

G------7-7p6------4-4--|

D--------------------7-|

A--0h5--------0h5------|

E----------------------|

G------7-7p6------4-4-----|

D---------------------5h7-|

A--0h5--------0h5---------|

E-------------------------|

G------7-7p6------4-4--|

D--------------------7-|

A--0h5--------0h5------|

E----------------------|

G------7-7p6------7--4-----|

D----------------------5h7-|

A--0h5--------0h5----------|

E--------------------------|

CHORUS:

G----------------------|

D----------------------|

A----------------------|

E-0--0-3-000--3--5--2--|

G------------------|

D------------------|

A------------------|

E-0--0-3-000--3--2-|

G----------------------|

D----------------------|

A----------------------|

E-0--0-3-000--3--5--2--|

G---------------------|

D---------------------|

A---------------------|

E-0--0-3-000--5-55-75-|

BRIDGE/Really awkward guitar solo:

G---------------------|

D-9~~~-7~~~-9~~~-7~~~-|

A---------------------|

E---------------------|

G---------------------|

D---------------------|

A---------------------|

E-7~~~-5~~~-7~~~-5~~~-|

G---------------------|

D-9~~~-7~~~-9~~~-7~~~-|

A---------------------|

E---------------------|

G---------------------|

D---------------------|

A---------------------|

E-7~~~-5~~~-7~~~-5~~~-|

Get this song at:  amazon.com sheetmusicplus.com

Share your thoughts

0 Comments found