Red Hot Chili Peppers

Red Hot Chili Peppers - Salute To Kareem bass tab

"Salute to Kareem (demo)" by Red Hot Chili Peppers

Bass part by Michael Balzary (Flea)

Tabbed by Dan Bogosian (UtBDan)

Visit UtBDan's band at:

http://www.geocities.com/underthbed/

RIFF 1A

G -----9--9-7---------|

D ----9-------9--7----|

A -7---------------9--|

E --------------------|

Note the 9 on the D string is done so quickly you can barely hear it, but it's there

RIFF 1B

G -------------------|

D ----9--9-7---------|

A -----------9--7----|

E -7--------------9--|

BREAKUP 1A

G -------------------|

D ----6--6-4---------|

A -----------6--4----|

E -4--------------6--|

G -------------------|

D ---66--6-4---------|

A -----------6--4----|

E -4--------------6--|

G -------------------|

D ----6--6-4---------|

A -----------6--4----|

E -4--------------6--|

G -------------------|

D ----66h8-66h8-66---|

A -------------------|

E -4-----------------|

BREAKUP 1B

G --------------------|

D ---5--5-3-----------|

A -----------5--3-----|

E -3--------------5---|

G -------------------|

D ---66--6-4---------|

A -----------6--4----|

E -4--------------6--|

G -------------------|

D ---77--7-5---------|

A -----------7--5----|

E -5--------------7--|

G -------------------|

D ---88--8-6---------|

A -----------8--6----|

E -6--------------8--|

G -------------------|

D -------------------|

A -------------------|

E -7--------7-7------|

BREAKUP 2

G ---------------|

D -2-0-----------|

A ------4--0-2---|

E ---------------|

PPPPPP P P P P

G -999999/21212121~~~-

D --------------------|

A --------------------|

E --------------------|

Note those are 21s.

P

G --------------------|

D ---4-0-2-0---2202---|

A -2---------2--------|

E --------------------|

G --------------------|

D ---4-0-2-0---2202---|

A -2---------2--------|

E --------------------|

G -----------------2-0-2-4-|

D ---4-0-2-0----44---------|

A -2---------22------------|

E -------------------------|

BREAKUP 3

S S S S S S S S

G -------------------------------|

D -------------------------------|

A -------------------------------|

E -0---0---0---0---0---0---0---0-|

ENDING

G -------|

D -------|

A -0--2--|

E -------|

Note Flea improvises around the main riffs a lot -near most everytime- but you have the

riffs and the most common way of playing them there.

P means pop and S means slap.

Get this song at:  amazon.com sheetmusicplus.com

Share your thoughts

0 Comments found