Red Hot Chili Peppers

Red Hot Chili Peppers - Save The Population bass tab

another great RHCP song FLEA is a great bassest

Verse 1

G----------------------|-------------------|----------------------|-------------------|

D----------------------|-------------------|----------------------|-------------------|

A---------5-55-5h6-----|---------5-55-5454-|---------5-5565h6-----|---------5-55-5454-|

E-3-36-66----------6h7-|-3-36-66-----------|-3-36-66----------6h7-|-3-36-66-----------|

G----------------------|-------------------|----------------------|-------------------|

D----------------------|-------------------|----------------------|-------------------|

A---------5-55-5h6-----|---------5-55-5454-|---------5-5565h6-----|---------5-55-5454-|

E-3-36-66----------6h7-|-3-36-66-----------|-3-36-66----------6h7-|-3-36-66-----------|

G----------------------|-------------------|----------------------|-------------------|

D----------------------|-------------------|----------------------|-------------------|

A---------5-55-5h6-----|---------5-55-5454-|---------5-5565h6-----|---------5-55-5454-|

E-3-36-66----------6h7-|-3-36-66-----------|-3-36-66----------6h7-|-3-36-66-----------|

Pre-chorus 1

G-----------------------------------|-----------------------------------|

D-----------------------------------|-----------------------------------|

A------------------11-11-11-11-11-1-|------------------11-11-11-11-11-1-|

E-33-33-33-33-33-3------------------|-33-33-33-33-33-3------------------|

G-----------------------------------|---------------------------------|

D-----------------------------------|---------------------------------|

A-66-66-66-66-7/87-33-33-33-33-33-3-|-55-55-55-55-55-55-55-55-55-55-5-|

E-----------------------------------|---------------------------------|

Chorus 1

G---------------------------------|---------------------------------|

D---------------------------------|-5-5-5-5-5-5-5-5-5-5-5-5-5-5-5-5-|

A-6-6-6-6-6-6-6-6-8-8-8-8-8-8-8-8-|---------------------------------|

E---------------------------------|---------------------------------|

G---------------------------------|---------------------------------|

D---------------------------------|-5-5-5-5-5-5-5-5-5-5-5-5-5-5-5-5-|

A-6-6-6-6-6-6-6-6-8-8-8-8-8-8-8-8-|---------------------------------|

E---------------------------------|---------------------------------|

G---------------------------------|---------------------------------|

D---------------------------------|-5-5-5-5-5-5-5-5-5-5-5-5-5-5-5-5-|

A-6-6-6-6-6-6-6-6-8-8-8-8-8-8-8-8-|---------------------------------|

E---------------------------------|---------------------------------|

G---------------------------------|---------------------------------|

D---------------------------------|-5-5-5-5-5-5-5-5-5-5-5-5-5-5-5-5-|

A-6-6-6-6-6-6-6-6-8-8-8-8-8-8-8-8-|---------------------------------|

E---------------------------------|---------------------------------|

Verse 2

G----------------------|-------------------|----------------------|-------------------|

D----------------------|-------------------|----------------------|-------------------|

A---------5-55-5h6-----|---------5-55-5454-|---------5-5565h6-----|---------5-55-5454-|

E-3-36-66----------6h7-|-3-36-66-----------|-3-36-66----------6h7-|-3-36-66-----------|

G----------------------|-------------------|----------------------|-------------------|

D----------------------|-------------------|----------------------|-------------------|

A---------5-55-5h6-----|---------5-55-5454-|---------5-5565h6-----|---------5-55-5454-|

E-3-36-66----------6h7-|-3-36-66-----------|-3-36-66----------6h7-|-3-36-66-----------|

G----------------------|-------------------|----------------------|-------------------|

D----------------------|-------------------|----------------------|-------------------|

A---------5-55-5h6-----|---------5-55-5454-|---------5-5565h6-----|---------5-55-5454-|

E-3-36-66----------6h7-|-3-36-66-----------|-3-36-66----------6h7-|-3-36-66-----------|

Pre-chorus 2

G-----------------------------------|-----------------------------------|

D-----------------------------------|-----------------------------------|

A------------------11-11-11-11-11-1-|------------------11-11-11-11-11-1-|

E-33-33-33-33-33-3------------------|-33-33-33-33-33-3------------------|

G-----------------------------------|---------------------------------|

D-----------------------------------|---------------------------------|

A-66-66-66-66-7/87-33-33-33-33-33-3-|-55-55-55-55-55-55-55-55-55-55-5-|

E-----------------------------------|---------------------------------|

Chorus 2

G---------------------------------|---------------------------------|

D---------------------------------|-5-5-5-5-5-5-5-5-5-5-5-5-5-5-5-5-|

A-6-6-6-6-6-6-6-6-8-8-8-8-8-8-8-8-|---------------------------------|

E---------------------------------|---------------------------------|

G---------------------------------|---------------------------------|

D---------------------------------|-5-5-5-5-5-5-5-5-5-5-5-5-5-5-5-5-|

A-6-6-6-6-6-6-6-6-8-8-8-8-8-8-8-8-|---------------------------------|

E---------------------------------|---------------------------------|

G---------------------------------|---------------------------------|

D---------------------------------|-5-5-5-5-5-5-5-5-5-5-5-5-5-5-5-5-|

A-6-6-6-6-6-6-6-6-8-8-8-8-8-8-8-8-|---------------------------------|

E---------------------------------|---------------------------------|

G---------------------------------|---------------------------------|

D---------------------------------|-5-5-5-5-5-5-5-5-5-5-5-5-5-5-5-5-|

A-6-6-6-6-6-6-6-6-8-8-8-8-8-8-8-8-|---------------------------------|

E---------------------------------|---------------------------------|

G---------------------------------|---------------------------------|

D---------------------------------|-5-5-5-5-5-5-5-5-5-5-5-5-5-5-5-5-|

A-6-6-6-6-6-6-6-6-8-8-8-8-8-8-8-8-|---------------------------------|

E---------------------------------|---------------------------------|

G---------------------------------|-----------------|

D---------------------------------|-5-5-5-5-5-5-5-5-|

A-6-6-6-6-6-6-6-6-8-8-8-8-8-8-8-8-|-----------------|

E---------------------------------|-----------------|

Awsomeness ok more to come

Any questions/comments contact dont_neeed_one@hotmail.com

Get this song at:  amazon.com sheetmusicplus.com

Share your thoughts

0 Comments found