Red Hot Chili Peppers

Red Hot Chili Peppers - Scar Tissue bass tab

Date: Thu, 19 Sep 2002 10:45:52 +0100

From: Petras

Subject: r/red_hot_chili_peppers/scar_tissue.btab

Title: Scar Tissue

Album: Californication

Band : Red Hot Chili Peppers

The song is very beautiful and lyric, so learn it and enjoy (if you

have good guitarist to play with).

Intro:

G 10-10-10-10-10----7--7--7--7--7-----

D ---------------10----------------10-

A ------------------------------------

E ------------------------------------

G 10-10-10-10-10----7-----7--7--------

D ---------------10-------------10-7--

A ------------------------------------

E ------------------------------------

Verse:

G ------------------------------------------

D 3--3--------------------0--0--0--3--0-----

A ---------0--1--3--0--3-----------------3--

E ------3-----------------------------------

G ------------------------------------------

D 3--3--------------------0--0--0--3--0-----

A ------0--1--3--0--1--3-----------------3--

E ------------------------------------------

Chorus:

G ------------------------------------------

D ------------------------0--0--0--3--0-----

A ------0--1--3--0--1--3-----------------3-- x 2

E 1--1--------------------------------------

(Played only before interludes and outro)

G ------------------------------------------

D ------------------------0--0--3--3--3--3--

A ------0--0--0--0--0--0--------------------

E 1--1--------------------------------------

Interlude 1

G 19-19-19-19-17-------------------5-----5-----7-----7--

D ---------------19-19-19-19-19-------------------------

A ------------------------------3-----3-----5-----5-----

E ------------------------------------------------------

Interlude 2

G 19-19-19-21-17-------17-19-17----5-----5-----7-----7--

D ---------------19-19----------------------------------

A ------------------------------3-----3-----5-----5----- x 2

E ------------------------------------------------------

Outro:

Play both interludes, first #1, then #2. End song with:

G 19-19-19-19-17-------17-19-17----5-----5-----7-----7--

D ---------------19-19----------------------------------

A ------------------------------3-----3-----5-----5-----

E ------------------------------------------------------

Song structure:

Intro

Verse

Chorus

Verse

Chorus

Interlude 1

Verse

Chorus

Verse

Chorus

Interlude 2

Verse

Chorus

Outro

Get this song at:  amazon.com sheetmusicplus.com

Share your thoughts

0 Comments found