Red Hot Chili Peppers

Red Hot Chili Peppers - American Ghost Dance (2) guitar tab

American Ghost Dance

The Red Hot Chili Peppers

Red Hot Chili Peppers

Wha-Wha Semi-Bloque

Intro

e-|----------- -----|

B-|----------- -----|

G-|--10-10-10- -9---|

D-|--10-10-10- -9---|

A-|--9--9--9-- -7---|

E-|----------- -----|

Refrain

e|-------------------- ----|

B|-------------------- --x-|

G|-------------------- --x-|

D|------5--0--3--0--2- --x-|

A|---0---------------- --x-|

E|-------------------- ----|

Tablatures de Joe Le Tordu.

Get this song at:  amazon.com sheetmusicplus.com

Share your thoughts

0 Comments found