Red Hot Chili Peppers

Red Hot Chili Peppers - City Of Angels Intro guitar tab

This is all that I know of the song, but it wasnt on this site so I figured that

I would be the first one to post it. Well here it is......

Intro

E-----------------------------------------------------------------------------

B-----------1-------------------------------1H3P1-----------------------------

G-------0------0----------------------1----------------------0----------------

D-----2---2-----------------------2------2---2-0--------2------2----------24-

A---3---------------2-0---------2---2-------------3-2-3---3---------------35-

E------------------------3-2-0------------------------------------------------

E----------------------------------------------------------------------------------------

B--------------------------------1-------------------------------------------------1H3P1-

G----------1-----------------0-----0-----------------------1-------------------0---------

D-----2------2---2-0-------2---2----------------------2------2---2-0-------2-----2-------

A---2---2------------3-2-3---------------2-0--------2---2------------3-2-3---3-----------

E-0-------------------------------------------3-2-0--------------------------------------

E---------------------------------------------------------------------------------------

B---------------------------------------------------------------------------------------

G-------------------1-----1-------------------------------------------------------------

D---24---------2------2----2-----------------------------------------------------------

A---35-------2---2-----------2---------------------------------------------------------

E-----------0---------------------------------------------------------------------------

After that it goes into the verse and the chords are:

E---7----7----4----4----------

B---9----7----5----4----------

G---9----8----6----5----------

D---9----9----6----6----------

A---7----9----4----6----------

E---7----7----4----4----------

Its pretty simple once you get the hang of it. Enjoy!!

Get this song at:  amazon.com sheetmusicplus.com

Share your thoughts

0 Comments found