Red Hot Chili Peppers

Red Hot Chili Peppers - Dani California guitar tab

E|-------------------------------------------|

B|-----6-------------------------------------|

G|---5---7-----------------------------------|

D|-7--------5p3—5p3-5p3-5p3------------------|

A|--------------------------5-----------/5---|

E|----------------------------/5--3--1-------|

E|----------------------------------------------|

B|-----6-----------------------------13-15------|

G|---5---7--5p2-5p2-5p2-5p2-5/7---14------------|

D|-7--------------------------------------------|

A|----------------------------------------------|

E|----------------------------------------------|

E|-------------------------------------------|

B|-----6-------------------------------------|

G|---5---7-----------------------------------|

D|-7--------5p3—5p3-5p3-5p3------------------|

A|--------------------------5-----------/5---|

E|----------------------------/5--3--1-------|

E|----------------------------------------------|

B|-----6-----------------------------13-15------|

G|---5---7--5p2-5p2-5p2-5p2-5/7---14------------|

D|-7--------------------------------------------|

A|----------------------------------------------|

E|----------------------------------------------|

E|---------------------------------------------------------------|

B|------13-15-13----15-13----15-13----15-13----15-13----15-13----|

G|---14----------14-------14-------14-------14-------14-------14-|

D|---------------------------------------------------------------|

A|---------------------------------------------------------------|

E|---------------------------------------------------------------|

E|----------------------------------------------|

B|-----6----------------------------------------|

G|---5---7---2h5p2-5p2-5p2-------------5--------|

D|-7-----------------------5p3---3-5/7---5\\3----|

A|-----------------------------5-------------5--|

E|----------------------------------------------|

E|----------------------------------------------|

B|-----6------------------------------13-b15----|

G|---5---7---5p2-5p2-5p2-5p2-5/7---14-----------|

D|-7--------------------------------------------|

A|----------------------------------------------|

E|----------------------------------------------|

E|-------------------------------------------|

B|-----6-------------------------------------|

G|---5---7-----------------------------------|

D|-7--------5p3—5p3-5p3-5p3------------------|

A|--------------------------5-----------/5---|

E|-----------------------------/5--3--1------|

E|-----|

B|-----|

G|---10|

D|b12--| 9 or 10x listen to it closely

A|-----|

E|-----|

E|-15-15-15-15-15-15-15|

B|---------------------|

G|---------------------|

D|---------------------|

A|---------------------|

E|---------------------|

E|------13-----------------------------|

B|-13h15--15-13-----10---10------------|

G|---------------b12--b12--b12-12p10---|

D|-----------------------------------12| at the very end he wiggles the

A|-------------------------------------| 12 up and down

E|-------------------------------------|

Added by tabs-database.com and our distinguished partners

Get this song at:  amazon.com sheetmusicplus.com

Share your thoughts

0 Comments found