Red Hot Chili Peppers

Red Hot Chili Peppers - What It Is (ninas Song) bass tab

Aritst-Red Hot Chili Peppers

Song-What it is

Album-Out in L.A.

T = slap

P = pop

/ = slide up

X = mute

* = ghost note

when playing the ghost note slap with your thumb

but dont take it off the string right away kind

of like a palm mute

enjoy

Intro X2 X2

G------------------:-------:-------------------:---9/11-

D------------------:-------:-------------------:---9/11-

A------------------:-------:-------------------:--------

E-O-x-0--0--x--0-0-:--h1p0-:-0-x-0--0--x--0-0--:--------

T T T T T T T T T T T T T T T S

Verse

G------------------------------------

D------------------------5---5-------

A------------------------------------

E-0-x-0--0--x--0-0-0h5h7---x---5---7-

T T T T T T T T P T P T T

G--------------------------------------

D------------------------5---5---------

A--------------------------------------

E-0-x-0--0--x--0-0-0h5h7---x---5-5-7-7-

T T T T T T T T P T P T T T T

Second Verse

G----------0-------9----------0-------1---- for T pluck with thumb and pointer finger

D-------------------------------0h2-------- P

A------------5h6---------------------------

E-0--0-3h5-3-----5---0--0-3h5-3-----0*---0-

T T T T T T P T T T T P T P T

P P

Chorus

G-------------------------------------

D-------------------------------------

A-------------------------------------

E---7-3--0-0-3-5-7---7-3--0-0-7-7-5-3-

T T T T T T T T T T T T T T T

Get this song at:  amazon.com sheetmusicplus.com

Share your thoughts

0 Comments found