Red Hot Chili Peppers

Red Hot Chili Peppers - Love Rollercoaster guitar tab

|--------------------------------------|---------------------------------|

|--------------------------------------|---------------------------------|

|--------------------------------------|---------------------------------|

|----5-0--5--3-------------------------|-------5-0--5-3------------------|

|-------------5--4--3-0--1-3--1-0--1-3-|----------------5--4--3-0--------|

|-3------------------------------------|--3------------------------1-----|

|---------------------------------------------------------|

|---------------------------------------------------------|

|---------------------------------------------------------|

|----5-0--5--3--------------------------------------------|

|--------------5--4--3-0--1--3--1-0--1-3------------------|

|-3-------------------------------------------------------|

|-----------------------------------------|

|-----------------------------------------|

|-----------------------------------------|

|----2--3--2------------------------------|

|-------------3--1--3--(3)-1--3--1--------|

|-3---------------------------------3--1--|

|-----------------------------------------|

|-----------------------------------------|

|-----------------------------------------|

|----5-0--5--3----------------------------|

|--------------5--4--3-0--1--3--1-0--1-3--|

|-3---------------------------------------|

|-----------------------------------------|

|-----------------------------------------|

|-----------------------------------------|

|----5-0--5--3----------------------------|

|--------------5--4--3-0------------------|

|-3-----------------------1---------------|

|-------------------------------------|-------------------------|

|-------------------------------------|-X-X-X------3------------|

|-------------------------------------|-X-X-X--5-----3----------|

|---5-0--5--3---------------------X/--|-X-X-X------------3--5---|

|-------------5--4--3-0--1--3--1--X/--|-------------------------|

|-3-----------------------------------|-------------------------|

|------------|-------------------|-----3-------------|

|------------|------5------------|-------------6-----|

|-3----------|--5---5---5-----X--|---------7---------|

|-3-------3--|--5----------5--X--|-0-----------------|

|------------|----------------X--|-X-----------------|

|------------|-------------------|-3-----------------|

|------3---------3------|-------------------|---------------------------|

|--(6)--------6--5------|-------------3-----|-----5--5--5-----5---------|

|----------7--------X\\--|----0--------X--0--|-5---5-----5-----5---------|

|-------------------X\\--|-3--3-----3--3-----|-5------------5-----0/7----|

|-------------------X\\--|-X-----------------|--------------------0/7----|

|-----------------------|-3-----------------|---------------------------|

|-------------------------|---3------3-------------|

|----------------------6--|------6------5----------|

|----0--3--0--3-----3-----|------------------------|

|----0-----------7--------|-----------------(0)----|

|-------------------------|------------------------|

|-3-----------------------|------------------------|

|--------------------------|--------------------|-----------------|

|--------------------------|---------6/8/15--X--|-----------------|

|-5--(5)---5--(5)---5---5--|-5---5-----------X--|-0-------0---7---|

|--------------------------|-----------------X--|-0---3---0---7---|

|--------------------------|--------------------|-0-------0-------|

|--------------------------|--------------------|-----------------|

|---------------------------------------|

|---------------------------------------|

|-----------------------------------7---|

|---------3-(3)---(3)--(3)-(3)--0-------|

|-5-3--3------------------------2-------|

|---------------------------------------|

|------------------------|--------------------|

|--------3---------------|-----5--3------/X\\--|

|--------3---------------|-0---5--3---5--/X\\--|

|-5---3------3---5----/3-|-0-------------/X\\--|

|--------------------0/3-|--------------------|

|------------------------|--------------------|

|------------------|-----------------------------------|

|-----3--3---------|-----------------------------------|

|-----3--3----3/5--|--0--0--5--5--5/7--7--7--7/10--10--|

|-------------3/5--|--0--0--X--X--X----X--X--X-----X---|

|------------------|--------3--3--3/5--5--5--5/8---8---|

|-3----------------|-----------------------------------|

Hope u like itAdded by tabs-database.com and our distinguished partners

Get this song at:  amazon.com sheetmusicplus.com

Share your thoughts

0 Comments found