Red Hot Chili Peppers

Red Hot Chili Peppers - Quixoticelixer bass tab

Song: Quixoticelixer

Artist: Red Hot Chili Peppers

Album: Californication

Bassist: Flea

Tuning: Standard

Verse:

G|-----------------|

D|-----------------|

A|-----------------|

E|-7~~~--7h9--5~~~-|

G|-------------------|

D|-------------------|

A|-------------------|

E|-7~~~--7h9--5--2~~-|

G|--------------------|

D|--------------------|

A|--------------------|

E|-7~~~--7h9--5~~~--2-|

G|-----------------------|

D|------------------0h2--|

A|---------2h4----4------|

E|--4h5-2------2---------|

G|-----------------|

D|-----------------|

A|-----------------|

E|-7~~~--7h9--5~~~-|

G|-------------------|

D|-------------------|

A|-------------------|

E|-7~~~--7h9--5--2~~-|

G|--------------------|

D|--------------------|

A|--------------------|

E|-7~~~--7h9--5~~~--2-|

G|--------------------6-7h9-|

D|----------------7-9-------|

A|------2-4-5-7h9-----------|

E|--4h5---------------------|

Chorus:

G|-----------------------|

D|-------4-4---7-7-------|

A|------------------7--7-|

E|--7-7------------------|

G|-----------------------|

D|-------4-4---7-7-------|

A|------------------7--7-|

E|--7-7------------------|

G|-----------------------|

D|-------4-4---7-7-------|

A|------------------7--7-|

E|--7-7------------------|

G|-----------------------|

D|-------4-4---7~~~~-----|

A|------------------7~~~-|

E|--7-7------------------|

Outro:

G|--------------------------------------|

D|--------------------------------------|

A|---------------5555---------777-------|

E|--2222---5555--------5555-------777---|

G|--------------------------------------|

D|--------------------------------------|

A|---------------5555---------777-------|

E|--2222---5555--------5555-------777---|

G|--------------------------------------|

D|--------------------------------------|

A|---------------5555---------777-------|

E|--2222---5555--------5555-------777---|

G|---------------------------------------|

D|---------------------------------------|

A|---777------777------777------777------|

E|-------777------777------777------777--|

Get this song at:  amazon.com sheetmusicplus.com

Share your thoughts

0 Comments found