Red Hot Chili Peppers

Red Hot Chili Peppers - Giveitaway bass tab

Ok, This is the perfect way, this took a hell of a long time to tab so please

rate it.

G|-------------------

D|-------------------

A|-------------------

E|----6/19------5/17-

(slap)

Verse (3x)

G:--------------12/---------------|--------------12/------------

D:--------/14---------------------|---------/14-----------------

A:-0---X-----------------0-3-0-3--|-0---X-----------------X-0-3-

E:--------------------------------|-----------------------------

(SLAP) (PLUCK) (SLAP)-----> (PLUCK) (SLAP)

G:--------------12/----------------|--------------12/------------

D:--------/14----------------------|---------/14----------------

A:-0---x-------------x-0-3-x-0-3---|-0---X-----------------X-0-3-

E:---------------------------------|-----------------------------

(SLAP) (PLUCK) (SLAP) (SLAP) (PLUCK) (SLAP)

CHORUS

G:---------------------------------------------

D:---------------------------------------------

A:-0-------------------------------------------

E:---------3/5-----------3/5----------3/5-------

VERSE (3x)

G:--------------12/---------------|--------------12/------------

D:--------/14---------------------|---------/14-----------------

A:-0---X-----------------0-3-0-3--|-0---X-----------------X-0-3-

E:--------------------------------|-----------------------------

(SLAP) (PLUCK) (SLAP) (PLUCK) (SLAP)

G:--------------12/----------------|--------------12/------------

D:--------/14----------------------|---------/14-----------------

A:-0---X-------------X-0-3-X-0-3---|-0---X-----------------X-0-3-

E:---------------------------------|-----------------------------

(SLAP) (PLUCK) (SLAP)

CHORUS:

G:---------------------------------------------

D:---------------------------------------------

A:-0-------------------------------------------

E:---------3/5------------3/5--------------3/5-

SHORT PAUSE HERE

[Fill] x8

G:-----------------------------

D:-----------------------------

A:--------------10-------------

E:-0----0/12----------0-3--0-3-

(SLAP) (PLUCK) (SLAP)

VERSE (3x)

G:--------------12/---------------|--------------12/------------

D:--------/14---------------------|---------/14----------------

A:-0---x-----------------0-3-0-3--|-0---x-----------------x-0-3-

E:--------------------------------|-----------------------------

(SLAP) (PLUCK) (SLAP) (PLUCK) (SLAP)

G:--------------12/----------------|--------------12/------------

D:--------/14----------------------|---------/14-----------------

A:-0---X-------------X-0-3-X-0-3---|-0---X-----------------X-0-3-

E:---------------------------------|-----------------------------

(SLAP) (PLUCK) (SLAP) (PLUCK) (SLAP)

CHORUS

G:---

D:---

A:-0-

E:---

VERSE (until the end of the song)

G:--------------12/---------------|--------------12/------------

D:--------/14---------------------|---------/14-----------------

A:-0---X-----------------0-3-0-3--|-0---X-----------------X-0-3-

E:-------------------------------|-----------------------------

(SLAP) (PLUCK) (SLAP) (PLUCK) (SLAP)

G:--------------12/----------------|--------------12/------------

D:--------/14----------------------|---------/14-----------------

A:-0---X-------------X-0-3-X-0-3---|-0---X-----------------X-0-3-

E:---------------------------------|-----------------------------

(SLAP) (PLUCK) (SLAP) (PLUCK) (SLAP)

by MACKK

Get this song at:  amazon.com sheetmusicplus.com

Share your thoughts

0 Comments found